Gametabs
Home
Tabs
Random

Postman

Average rating: 5.000

2 ratings

Composer:

Tabber:

Style:

Instrument:

Created: September 01, 2009 at 12:00 AM

            The Legend of Zelda: Twilight Princess
Postman
Composed by Koji Kondo
Tabbed by hslesperance
9/15/08

Standard Tuning

Guitar 1

e---8--8--8--8-----8-----------8--8--8--8--13--8-----
B---------------------11--------------------------11-
G---------------8------------------------------------
D----------------------------------------------------
A----------------------------------------------------
E----------------------------------------------------

e---8--8--8--8-----8---------------------------------
B---------------------11------------------9----------
G---------------8-------------------11---------------
D----------------------------------------------------
A----------------------------------------------------
E----------------------------------------------------

Guitar 2

e------1-----1-----1-----1---------------------------|
B------1-----1-----1-----1-----4-----4-----4-----4---|
G---1-----------1--------------3-----3-----3-----3---| 4x
D---------1-----------1-----4-----------4------------|
A---------------------------------4-----------4------|
E----------------------------------------------------|




        
Comments

@Cyrberus (July 29, 2013 at 7:06 AM)

thank you is easy :D , simple :)