Gametabs
Home
Tabs
Random

Ordon Village

Average rating: 5.000

4 ratings

Composer:

Tabber:

Style:

Instrument:

Created: May 21, 2010 at 12:00 AM

                     Ordon Village [duet]   (from The Legend of Zelda: Twilight Princess)

Music by Koji Kondo, Asuka Ohta, Toru Minegishi >> piano arr. by Kimberly Boman >> tab by Diralark

Tempo 69


Rhythm Guitar, tempo 72

      S S S S Q    S S S S Q       S S S S Q    S S S S Q       S S S S Q    S S S S Q     
E||---------0-3------------0----|--------0-3------------0----|--------0-3----------0-3----|
B||-------3---5----------0-1----|------3---5----------0-1----|------3---5--------3---5----|
G||*----0--------------2--------|----0--------------2--------|----0------------0----------|
D||*-----------------2----------|-----------------2----------|----------------------------|
A||---3------------0------------|--3------------0------------|--3-------------------------|
E||-----------------------------|----------------------------|----------------------------|


  S S S S Q    S S S S S S S S    S S S S Q    S S S S Q       S S S S Q    S S S S S S S S  
-------------------------------|--------0-5----------0-5----|-------------------------------|
----------1--------------------|------3---6--------3---6----|--------0-3--------------------|
--------0-2----------0-------0-|----2------------2----------|------2---4----------0-------0-|
------3------------3-------2---|--0-------------------------|----0------------0-3-----0-3---|
----3------------3-------3-----|----------------------------|-------------------------------|
--1--------------------0-------|----------------------------|--3--------------------1-------|


  S S S S Q    S S S S Q       S S S S Q    S S S S Q       S S S S Q    S S S S Q     
-----------------------0----|--------0-5-----------------|----------3------------1----|
----------0----------2-2----|------3---6------------3----|------1-3-5----------3-3----|
--------0-0--------0--------|----2--------------0-2-4----|----0--------------2--------|
------2----------2----------|--0--------------0----------|-----------------3----------|
----2----------0------------|----------------------------|--3-------------------------|
--0-------------------------|---------------3------------|----------------------------|


  S S S S Q    S S S S S S S S    S S S S Q    S S S S Q       S S S S Q    S S S S S S S S  
----------3--------------------|--------0-3----------0-3----|-------------------------------|
--------1-4----------3-------0-|------3---5--------3---5----|----------1--------------------|
------1------------0-------0---|----0------------0----------|--------0-2----------0-------0-|
----1------------0-------0-----|----------------------------|------3------------3-------2---|
-------------------------------|--3-------------------------|----3------------3-------3-----|
--4--------------------3-------|----------------------------|--1--------------------0-------|


  S S S S Q    S S S S Q       S S S S Q    S S S S S S S S    S S S S Q    S S S S Q     
--------0-5----------0-5----|-------------------------------|-----------------------0----|
------3---6--------3---6----|--------0-3--------------------|----------0----------2-2----|
----2------------2----------|------2---4----------0-------0-|--------0-0--------0--------|
--0-------------------------|----0------------0-3-----0-3---|------2----------2----------|
----------------------------|-------------------------------|----2----------0------------|
----------------------------|--3--------------------1-------|--0-------------------------|


  S S S S Q    S S S S Q       S S S S Q    S S S S Q       S S S S Q    S S S S Q     
--------0-5-----------------|----------------------------|--------0-3----------0-3----|
------3---6------------3----|----------1------------0----|------3---5--------3---5----|
----2--------------0-2-4----|--------2-2------------0----|----0------------0----------|
--0--------------0----------|------3--------------0------|----------------------------|
----------------------------|----3--------------2--------|--3-------------------------|
---------------3------------|--1--------------3----------|----------------------------|


  S S S S Q    S S S S Q       S S S S Q    S S S S Q       S S S S Q    S S S S Q     
----------------------------|----------------------------|----------------------------|
----------4------------4----|--------3-4----------3-4----|----------3------------3----|
------1-3-5--------1-3-5----|------3---3--------3---3----|------0-3-3--------0-3-3----|
----1------------1----------|----1------------1----------|----0------------0----------|
----------------------------|----------------------------|----------------------------|
--4-------------------------|--3-------------------------|--3-------------------------|


  S S S S Q    S S S S Q       S S S S Q    S S S S Q       S S S S Q    S S S S Q     
--------0-1----------0-1----|--------0-3----------0-3----|--------0-3----------0-3----|
------3---3--------3---3----|------3---5--------3---5----|------3---3--------3---3----|
----2------------2----------|----0------------0----------|----0------------0----------|
--0-------------------------|----------------------------|----------------------------|
----------------------------|--3-------------------------|--2-------------------------|
----------------------------|----------------------------|----------------------------|


  S S S S Q    S S S S Q       S S S S Q    H           
----------------------------|-------------------------||
----------3------------3----|----------1----0---------||
--------0-3----------0-3----|--------2-2----0--------*||
----0-1----------0-1--------|------3-----------------*||
----------------------------|----3--------------------||
----------------------------|--1------------3---------||


Melody Guitar, tempo 72

      W                   H        Q    E  E     Q.     E  Q    Q       H.           E  E   
E||--------------------|----------------------|-----------------0----|---------------------|
B||--------------------|----------------------|--1------0--1---------|---------------------|
G||*-------------------|-------------------0--|----------------------|--2---------------2--|
D||*-------------------|----------------------|----------------------|---------------------|
A||--------------------|----------------------|----------------------|---------------------|
E||--------------------|----------------------|----------------------|---------------------|


  Q.     E  Q    Q       H.           E  E     Q.     E  Q.     S S    Q.     E  Q.     S S  
-----------------1----|---------------------|--3------------------0-|--1--------------------|
--3------2--3---------|--0---------------0--|---------3--2------3---|---------1--0------1-3-|
----------------------|---------------------|-----------------------|-----------------------|
----------------------|---------------------|-----------------------|-----------------------|
----------------------|---------------------|-----------------------|-----------------------|
----------------------|---------------------|-----------------------|-----------------------|


  S S Q    E  H           S S Q    E  Q.     E     Q.     E  Q    Q       H.           E  E   
--0---0----1-----------|------------------------|-----------------0----|---------------------|
----3---------3--------|--1-0-1----3--0---------|--1------0--1---------|---------------------|
-----------------------|---------------------0--|----------------------|--2---------------2--|
-----------------------|------------------------|----------------------|---------------------|
-----------------------|------------------------|----------------------|---------------------|
-----------------------|------------------------|----------------------|---------------------|


  Q.     E  Q    Q       H.           E  E     Q.     E  Q.     S S    Q.     E  Q.     S S  
-----------------1----|---------------------|--3------------------0-|--1--------------------|
--3------2--3---------|--0---------------0--|---------3--2------3---|---------1--0------1-3-|
----------------------|---------------------|-----------------------|-----------------------|
----------------------|---------------------|-----------------------|-----------------------|
----------------------|---------------------|-----------------------|-----------------------|
----------------------|---------------------|-----------------------|-----------------------|


  S S Q    E  Q    E  E     H.           E  E     Q    S S S S Q    Q       H        Q.     E   
--0---0----1-------------|---------------------|--------------------1----|---------------------|
----3---------3-------1--|--1---------------1--|--1----L---1-3-4---------|--4------------------|
-------------------2-----|---------------------|---------3---------------|-----------3------3--|
-------------------------|---------------------|-------------------------|---------------------|
-------------------------|---------------------|-------------------------|---------------------|
-------------------------|---------------------|-------------------------|---------------------|


  Q    S S S S Q    Q       H.           E  E     Q    S S S S Q    Q       Q.     S S  H         
-------------------------|------------------0--|--0----L---0-2-3----5----|--3------2-3-10--------|
-------------1-3----4----|--3------------------|---------3---------------|-----------------------|
--3----L-2-3-------------|---------------------|-------------------------|-----------------------|
-------------------------|---------------------|-------------------------|-----------------------|
-------------------------|---------------------|-------------------------|-----------------------|
-------------------------|---------------------|-------------------------|-----------------------|


   H         Q     S  S  S S     W                   
--10--------10-----L-13-10-8-|--10-----------------||
-----------------------------|---------------------||
-----------------------------|--------------------*||
-----------------------------|--------------------*||
-----------------------------|---------------------||
-----------------------------|---------------------||


Legend
---------------
W - whole
H - half
Q - quarter
E - 8th
S - 16th
. - note dotted
L - tied note
        
Comments

@Evilnms (May 22, 2010 at 7:06 AM)

This tab is absolutely perfect :p Sounds just like the music from TP. Although it's a bit hard to play for a newb like me. Is it possible to split it into two guitars, one for the melody and one for the background?


@diralark (May 22, 2010 at 1:38 PM)

Indeed u right : Kimberly Boman arrangments are perfect so I easyly made a duet version (as I was made a solo version anyway) from her score, without change a note it works ! And finally I just added that to the submission forum. Duet its a good idear especially because a big part of rythm must normally be played "staccato", so it ll be possible now with 2 guitars, have fun ^^