Gametabs
Home
Tabs
Random

Ordon Ranch

Average rating: 5.000

1 ratings

Composer:

Tabber:

Style:

Instrument:

Created: July 07, 2010 at 12:00 AM

            Both guitars are standard tuning
Feel free to correct if you see any error (:

Guitar 1:
     Q.     E  E  E     H.              H.              H.            
E||---------------5--|--3------------|---------------|---------------|
B||--3---------3-----|---------------|---------------|---------------|
G||---------2--------|---------------|---------------|---------------|
D||------------------|---------------|---------------|---------------|
A||------------------|---------------|---------------|---------------|
E||------------------|---------------|---------------|---------------|

  Q.     Q.        Q.     Q    S S    Q.     Q    S S    Q.     Q.      
--2-------------|--0---------------|--------------0-2-|--3------0------|
---------3------|--------------0-2-|--3------3--------|----------------|
----------------|---------2--------|------------------|----------------|
----------------|------------------|------------------|----------------|
----------------|------------------|------------------|----------------|
----------------|------------------|------------------|----------------|

  Q.     Q.        Q.     Q    S S    Q.     E  E  E     E  E  E  Q.      
--2-------------|--0---------------|------------0--2--|--3--5--7--5------|
---------3------|--------------0-2-|--3------3--------|------------------|
----------------|---------2--------|------------------|------------------|
----------------|------------------|------------------|------------------|
----------------|------------------|------------------|------------------|
----------------|------------------|------------------|------------------|

  Q.     Q.        Q.     Q    S S    Q.     Q    S S    Q.     Q.      
--2-------------|--0---------------|--------------0-2-|--3------0------|
---------3------|--------------0-2-|--3------3--------|----------------|
----------------|---------2--------|------------------|----------------|
----------------|------------------|------------------|----------------|
----------------|------------------|------------------|----------------|
----------------|------------------|------------------|----------------|

  Q.     Q.        Q.     Q    S S    Q.     E  E  E     E  E  E  Q.      
--2-------------|--0---------------|------------0--2--|--3--5--7--5------|
---------3------|--------------0-2-|--3------3--------|------------------|
----------------|---------2--------|------------------|------------------|
----------------|------------------|------------------|------------------|
----------------|------------------|------------------|------------------|
----------------|------------------|------------------|------------------|

  Q.     E  E  E     Q.     Q.        Q.     E  E  E     H.            
------------------|----------------|------------------|---------------|
--0------L--2--3--|--2-------------|--0------L--2--3--|--2------------|
------------------|---------2------|------------------|---------------|
------------------|----------------|------------------|---------------|
------------------|----------------|------------------|---------------|
------------------|----------------|------------------|---------------|

  Q.     E  E  E     Q.     Q.         Q.     E   E   E   
------------------|----------------|--10------L--12--13--|
--0------L--2--3--|--5------2------|---------------------|
------------------|----------------|---------------------|
------------------|----------------|---------------------|
------------------|----------------|---------------------|
------------------|----------------|---------------------|

   Q    S  S E   E  E      H.              Q     E   E   E  E   
--12----L-10-8---------|----------------|-------------------8--|
----------------10--8--|--10------------|--L------------10-----|
-----------------------|----------------|-----------10---------|
-----------------------|----------------|-------10-------------|
-----------------------|----------------|----------------------|
-----------------------|----------------|----------------------|

   H.              Q     E   E   E   E      H.              H.             
--10------------|--L----------------10--|--12------------|--0------------||
----------------|---------------12------|----------------|--2------------||
----------------|-----------12----------|----------------|--2------------||
----------------|-------12--------------|----------------|---------------||
----------------|-----------------------|----------------|---------------||
----------------|-----------------------|----------------|---------------||





Pista 1
     H.              H.              E  E  E  Q.        E  E  E  Q.      
E||---------------|---------------|------------------|------------------|
B||---------------|---------------|-----------3------|-----------3------|
G||---------------|---------------|--------2---------|--------2---------|
D||---------------|---------------|--0--4------------|--0--4------------|
A||---------------|---------------|------------------|------------------|
E||---------------|---------------|------------------|------------------|

  E  E  E  Q.        E  E  E  Q.        E  E  E  Q.        E  E  E  Q.      
------------------|-----------0------|-----------2------|------------------|
-----------3------|--------2---------|--------3---------|--------0--3------|
--------2---------|-----2------------|-----2------------|-----0------------|
--0--4------------|--0---------------|--0---------------|--0---------------|
------------------|------------------|------------------|------------------|
------------------|------------------|------------------|------------------|

  E  E  E  Q.        E  E  E  Q.        E  E  E  Q.        E  E  E  E  E  E   
------------------|-----------0------|-----------2------|-----0--3--0--------|
-----------3------|--------2---------|--------3---------|--------------1-----|
--------2---------|-----2------------|-----2------------|-----------------2--|
--0--4------------|--0---------------|--0---------------|--------------------|
------------------|------------------|------------------|--3-----------------|
------------------|------------------|------------------|--------------------|

  E  E  E  Q.        E  E  E  Q.        E  E  E  Q.        E  E  E  Q.      
------------------|-----------0------|-----------2------|------------------|
-----------3------|--------2---------|--------3---------|--------0--3------|
--------2---------|-----2------------|-----2------------|-----0------------|
--0--4------------|--0---------------|--0---------------|--0---------------|
------------------|------------------|------------------|------------------|
------------------|------------------|------------------|------------------|

  E  E  E  Q.        E  E  E  Q.        E  E  E  Q.        E  E  E  E  E  E   
------------------|-----------0------|-----------2------|-----0--3--0--------|
-----------3------|--------2---------|--------3---------|--------------1-----|
--------2---------|-----2------------|-----2------------|-----------------2--|
--0--4------------|--0---------------|--0---------------|--------------------|
------------------|------------------|------------------|--3-----------------|
------------------|------------------|------------------|--------------------|

  E  E  E  E  E  E     E  E  E  E  E  E     E  E  E  E  E  E   
--------------------|-----------0--------|--------------------|
-----------3--0-----|--------2-----2-----|-----------3--0-----|
--------0--------0--|-----------------0--|--------0--------0--|
-----0--------------|-----2--------------|-----0--------------|
--------------------|--------------------|--------------------|
--3-----------------|--3-----------------|--3-----------------|

  E  E  E  E  E  E     E  E  E  E  E  E     E  E  E  E  E  E   
-----------0--------|--------------------|-----------0--------|
--------2-----2-----|-----------3--0-----|--------2-----2-----|
-----------------0--|--------0--------0--|-----------------0--|
-----2--------------|-----0--------------|-----2--------------|
--------------------|--------------------|--------------------|
--3-----------------|--3-----------------|--3-----------------|

  E  E  E  E  E  E     E  E  E  E  E  E     E  E  E  E  E  E   
--------------------|-----------0--------|--------------------|
-----------3--------|--------1-----1-----|--------------------|
--------3-----3-----|-----0-----------0--|-----------2--------|
--0--3-----------3--|--2-----------------|--------3-----3-----|
--1-----------------|--3-----------------|--0--3-----------3--|
--------------------|--3-----------------|--1-----------------|

  E  E  E  E  E  E     E  E  E  E  E  E     E  E  E  E  E  E   
--------------------|--------------------|--------------------|
--1-----------------|-----------0--------|-----------0--------|
-----------2--------|--------0-----0-----|--------0-----0-----|
-----3--------3-----|-----0-----------0--|-----0-----------0--|
--------3--------3--|--2-----------------|--------------------|
--------------------|--0-----------------|--0-----------------|

  E  E  E  E  E  E     H.             
-----------0--------|---------------||
--------3-----3-----|---------------||
-----0-----------0--|---------------||
--------------------|--2------------||
--0-----------------|--0------------||
--------------------|---------------||




Duration Legend
---------------
W - whole
H - half
Q - quarter
E - 8th
S - 16th
T - 32nd
X - 64th
. - note dotted
|-n-|  - n-tuplets
        
Comments

No comments yet