Gametabs
Home
Tabs
Random

Mini Game Lake Hylia

Average rating: No ratings

Composer:

Tabber:

Style:

Instrument:

Created: June 04, 2023 at 12:00 AM

            Might be in the wrong key sounds fine played on it's own.

E|----------------------|----------------------|----------------------|-------------------0--|
A|----------2-2-2---0---|---------0-0-0--------|----------2-2-2---0---|--2-3-5x3-5-5-5--3---3|
D|--2-3-5x3-------5---3-|-0-2-3x3-------3-5-2--|--2-3-5x3-------5---3-|----------------------|
G|----------------------|----------------------|----------------------|----------------------|

E|-2-3-5-3-2-0----------|-----0----------------|-2-3-5-3-2-0---3------|---3------------------|
A|-------------5--------|-4-5---5-4-2-0--------|-------------5---5-2--|-5---5-2--------------|
D|----------------------|----------------------|----------------------|---------5------------|
G|----------------------|----------------------|----------------------|----------------------|
        
Comments

No comments yet