Gametabs
Home
Tabs
Random

Midna's Theme

Average rating: 4.333

3 ratings

Composer:

Tabber:

Style:

Instrument:

Created: June 17, 2010 at 12:00 AM

            Song: Midna's Theme
Game: Legend Of Zelda: Twilight Princess
Composer(s): Koji Kondo, Asuka Ohta, Toru Minegishi
Tabbed by: Daugreano
 


Guitar: 

   Q    E   E   Q    E   E     Q    E   E   E   E   E   E     H     E   E   E   E
E|----------4------------4---|----------4---0-------2---0---|-----------5---0-------|
B|------2-------4----2-------|-4----2-----------0-----------|-4-----3-----------3---|
G|---------------------------|------------------------------|-----------------------|
D|---------------------------|------------------------------|-----------------------|
A|---------------------------|------------------------------|-----------------------|
E|---------------------------|------------------------------|-----------------------|

                            Missing measures here...
        
   Q    E   E   Q    E   E     W            Q   E   E    Q   E     E    Q   E   E   E   E 
E|------2------------2-------|-------|----------4------------4---|----------4---0-------2---0---|
B|-2--------2---1--------1---|-0-----|------2-------4----2-------|-4----2-----------0-----------|
G|---------------------------|-------|---------------------------|------------------------------|
D|---------------------------|-------|---------------------------|------------------------------|
A|---------------------------|-------|---------------------------|------------------------------|
E|---------------------------|-------|---------------------------|------------------------------|
                             
Slow down for the last two measures...

   Q     E   E   Q   E   E     Q    E   E   Q    E   E     W  
E|-------0-----------4-------|------0---2---4------------|--------|
B|-4---------4---0-------3---|-2------------0----0-------|--------|
G|---------------------------|-----------------------2---|-1------|
D|---------------------------|---------------------------|--------|
A|---------------------------|---------------------------|--------|
E|---------------------------|---------------------------|--------|

Then Repeat a few times...

        
Comments

@Ukulelady (July 21, 2012 at 5:31 AM)

even though i have to translate the tab to ukulele, its an easy an fun song. Thanks for putting it up! :3