Gametabs
Home
Tabs
Random

Midna's Theme

Average rating: 4.000

3 ratings

Composer:

Tabber:

Style:

Instrument:

Created: November 12, 2009 at 12:00 AM

            Midna's Theme
Legend of Zelda: Twilight Princess
Composer: Koji Kondo 
Tabbed by Haley T.
November 10,2009 

e----------------4-----4-----4-0-7-2-0------5-0-----2-----2----
B--------------2---4-2---4-2-----------4--3-----3-2---2-1---1-0
G--1--2---1--2-------------------------------------------------
D--------------------------------------------------------------
A--------------------------------------------------------------
E--------------------------------------------------------------

e---4-----4-----4-0-7-2-0----12-11------10-9-0-2-4--------
B-2---4-2---4-2-----------4--------12-9------------0------
G----------------------------------------------------2-1--
D---------------------------------------------------------
A---------------------------------------------------------
E---------------------------------------------------------

e---------------4-----4-----4-0-7-2-0------5-0-----2-----2----
B-------------2---4-2---4-2-----------4--3-----3-2---2-1---1-0
G-1--2---1--2-------------------------------------------------
D-------------------------------------------------------------
A-------------------------------------------------------------
E-------------------------------------------------------------

e---4-----4-----4-0-7-2-0----12-11------10-9-0-2-4--------
B-2---4-2---4-2-----------4--------12-9------------0------
G----------------------------------------------------2-1--
D---------------------------------------------------------
A---------------------------------------------------------
E---------------------------------------------------------
        
Comments

@Glen_lol (November 26, 2009 at 12:02 PM)

it all sounds good a esay way to play


@Navevan46 (September 28, 2013 at 4:33 PM)

Nice tab. Small change, but the intro should be like this: e----------------------4-- B-------------------2--4 G--4--5---4--5--------- D------------------------- A------------------------- E-------------------------