Gametabs
Home
Tabs
Random

Midna's Lament

Average rating: 4.800

15 ratings

Composer:

Tabber:

Style:

Instrument:

Created: November 30, 2011 at 12:00 AM

                            Midna's Desperate Hour    from  Legend of Zelda: Twilight Princess

 Music by Koji Kondo, Hajime Wakai, Toru Minegishi, Kenta Nagata
        >> Piano arr. by Aivi Tran >> tab by Diralark                                

Guitar, tempo 111, let ring

      E  E  E  E  E  E     E  E  E  E  E  E     E  E  E  E  E  E     E   E  E  E  E   E   
E||------------------0--|-----------------0--|-----------------0--|--3p--0---------------|
B||---------------1-----|--------------1-----|--------------1-----|---------1------------|
G||*-----------2--------|-----------2--------|-----------2--------|------------2---------|
D||*--0--2--3-----------|--0--2--3-----------|--0--2--3-----------|--0------------3p--2--|
A||---------------------|--------------------|--------------------|----------------------|
D||---0-----------------|--0-----------------|--0-----------------|----------------------|


  E  E   E  E  E   E     E  E  E  E  E  E     E  E  E  E  E  E     E  E   E  E  E  E   
---------------1p--0--|--0--------------0--|-----------------0--|------------------0--|
----------------------|--------------1-----|--0-----------1-----|--0------------1-----|
--2---------2---------|-----------2--------|-----------2--2--0--|------------2--------|
--0--2h--3------------|--0--2--3-----------|--0--2--3-----------|--0--2h--3-----------|
----------------------|--------------------|--------------------|---------------------|
--0-------------------|--0-----------------|--0-----------------|--0------------------|


  E  E  E  E  E  E     E  E  E  E  E  E     E  E   E  E  E  E     E  E  E  E  E  E   
-----------------0--|-----5--0--------5--|--0---------------0--|-----------------0--|
--------------0-----|--3-----------3-----|---------------0-----|--------------0-----|
-----------2--------|-----------2--------|------------2--------|-----------2--------|
--0--2--3-----------|-----0--------------|--0--2h--3-----------|--0--2--3-----------|
--------------------|--------------------|---------------------|--------------------|
--0-----------------|--0-----------------|--0------------------|--0-----------------|


  E  E   E  E  E   E     E  E  E  E  E  E     E  E   E  E  E  E     E   E  E  E  E  E   
---------------1p--0--|--0--------------0--|---------------0--1--|--3---------------0--|
----------------------|--------------1-----|--3------------------|---------------1-----|
--2---------2---------|-----------2--------|------------2--------|------------2--------|
--0--2h--3------------|--0--2--3-----------|--0--2h--3-----------|--0h--2--3-----------|
----------------------|--------------------|---------------------|---------------------|
--0-------------------|--0-----------------|--0------------------|--0------------------|


                              VIII       -]                                             
  E  E  E  E  E  E     E  E   E   E  E   E     E  E   E  E  E  E     E  E  E  E  E  E   
-----------------0--|-------------8---------|--0---------------0--|-----------------0--|
--------------0-----|----------------8------|---------------0-----|--------------0-----|
-----------2--------|--------10---------10--|------------2--------|-----------2--------|
--0--2--3-----------|-----0-----------------|--0--2h--3-----------|--0--2--3-----------|
--------------------|---------8-------------|---------------------|--------------------|
--0-----------------|--0--------------------|--0------------------|--0-----------------|


                                                        VI          V                   
  E  E   E  E  E  E     E  E  E  E  E  E     E  E    E  E  E  E     E   E  E  E  E  E   
--5---------------0--|-----------------0--|-------------6--------|--5------------------|
---------------1-----|--------------1-----|-------------------6--|------------6-----6--|
------------2--------|-----------2--------|--8-------------7-----|---------------7-----|
--0--2h--3-----------|--0--2--3-----------|-------------8--------|---------5-----------|
---------------------|--------------------|--6--8h--10-----------|--6h--8--------------|
--0------------------|--0-----------------|----------------------|---------------------|


  III                     --    I                                                      
  E   E   E  E   E  E     E  E  E  E  E  E     E  E  E  E  E  E     E  E  E  E  E  E   
--3--------------------|--3-----------1--3--|--0--------------2--|--0--------------2--|
-----------------------|-----------1--------|-----------1--3-----|-----------1--3-----|
--------------------5--|--------1-----------|--------2-----------|--------2-----------|
-------------5h--6-----|-----3--------------|--0--4--------------|--0--4--------------|
------3h--6------------|--4-----------------|--------------------|--------------------|
--6--------------------|--------------------|--0-----------------|--0-----------------|


                       V                                                                                 
  E  E  E  E  E  E     E  E  E  E  E  E     E  E  E  E  E  E     E  E  E  E  E  E     E  E  E  E  E  E   
-----------------5--|--0--------------5--|--0--------------0--|-----------------0--|-----------------0--|
--------------6-----|--------------6-----|--------------1-----|--0-----------1-----|--------------0-----|
-----------7--------|--0--------7--------|-----------2-----0--|-----------2--------|-----------2--------|
--7--7--8-----------|-----7--8-----------|--0--2--3-----------|--0--2--3-----------|--0--2--3-----------|
--0-----------------|--------------------|--------------------|--------------------|--------------------|
--------------------|--0-----------------|--0-----------------|--0-----------------|--0-----------------|


  E  E  E  E  E  E     E  E  E  E  E  E     E  E  E  E  E  E     E  E   E  E  E   E   
-----5--0--------5--|--0--------------0--|-----------------0--|---------------1p--0--|
--3-----------3-----|--------------0-----|--------------0-----|----------------------|
-----------2--------|-----------2--------|-----------2--------|--2---------2---------|
-----0--------------|--0--2--3-----------|--0--2--3-----------|--0--2h--3------------|
--------------------|--------------------|--------------------|----------------------|
--0-----------------|--0-----------------|--0-----------------|--0-------------------|


  E  E  E  E  E  E     E  E   E  E  E   E     E   E   E  E  E  E     E  E  E  E  E  E   
--0--------------0--|---------------0h--1--|--3----------------0--|-----------------0--|
--------------1-----|--3-------------------|----------------1-----|--------------0-----|
-----------2--------|------------2---------|-------------2--------|-----------2--------|
--0--2--3-----------|--0--2h--3------------|--0h--2h--3-----------|--0--2--3-----------|
--------------------|----------------------|----------------------|--------------------|
--0-----------------|--0-------------------|--0-------------------|--0-----------------|


         VIII       -]                                                                   
  E  E   E   E  E   E     E  E   E  E  E  E     E  E  E  E  E  E     E  E   E  E  E  E   
-------------8---------|--0---------------0--|-----------------0--|------------------0--|
----------------8------|---------------0-----|--------------0--0--|--1------------1-----|
--------10---------10--|------------2--------|-----------2--2-----|------------2--------|
-----0-----------------|--0--2h--3-----------|--0--2--3-----------|-----2h--3-----------|
---------8-------------|---------------------|--------------------|--0------------------|
--0--------------------|--0------------------|--0-----------------|---------------------|


  E  E  E  E  E  E     E  E  E  E  E  E     E  E  E  E  E  E     E  E  E   E  E  E   
-----------------0--|--------------------|--------------------|---------------------|
--1-----------1-----|--------------0-----|--------------0-----|------------------1--|
-----------2--------|--7--------0-----7--|--0--------0-----7--|---------------2-----|
-----2--3-----------|-----0--------------|-----0--------------|--3-----0h--3--------|
--0-----------------|--------7-----------|--------7-----------|-----3---------------|
--------------------|--5-----------------|--5-----------------|--3------------------|


  E  E  E   E  E  E     E  E   E  E  E  E     E  E   E  E  E  E     E  E  E  E  E  E   
---------------------|---------------------|---------------------|--------------------|
------------------1--|--0---------------0--|------------------0--|-----------3-----1--|
---------------2-----|---------------0-----|---------------0-----|--------0-----2-----|
--3-----0h--3--------|------------2--------|--2---------2--------|-----------3--------|
-----3---------------|-----2h--3-----------|-----2h--3-----------|-----3--------------|
--3------------------|--2------------------|--2------------------|--3-----------------|


  E  E  E  E  E  E     E  E  E  E  E  E     E  E  E  E   E  E     E  E   E  E  E  E   
--------------------|--------------------|------------------1--|------------0--------|
-----3-----------1--|-----------3-----1--|-----------0h--3-----|---------------0-----|
--0-----2-----2-----|--------0-----2-----|--2-----1------------|-----0h--2--------0--|
-----------3--------|-----------4--------|-----2---------------|---------------------|
-----3--------------|-----3--------------|--2------------------|--3------------------|
--3-----------------|--4-----------------|---------------------|---------------------|


  E  E  E   E  E  E     E  E  E  E  E   E     E  E   E  E  E   E     E  E  E  E  E  E   
-----0---------0--3--|-----------3---------|---------------0h--3--|--------------------|
--------0h--1--------|--------1-----3p--1--|--0---------2---------|-----------------0--|
--2--0---------------|-----0--2------------|-----0h--2------------|--------------0-----|
---------------------|---------------------|----------------------|-----------2--------|
--3------------------|--4------------------|--4-------------------|--0--2--3-----------|
---------------------|---------------------|----------------------|--------------------|


                                                                     ^                              
  E  E  E  E  E  E     E  E  E  E  E  E     E   E  E  E  E   E       H.              H.             
--------------------|--------------------|-----------------------||---------------|--L------------||
-----------------0--|-----------------0--|--3p--0----------------||---------------|---------------||
--------------0-----|--------------0-----|---------0------------*||--2------------|--L------------||
-----------2--------|-----------2--------|------------2---------*||--2------------|--L------------||
--0--2--3-----------|--0--2--3-----------|---------------3p--2---||--0------------|--L------------||
--------------------|--------------------|-----------------------||---------------|---------------||

Legend
------------
H - half
E - 8th
. - note dotted
L - tied note
h - hammer on
p - pull off
^ - brush up
v - brush down
        
Comments

@Lemoncobbler (November 30, 2011 at 10:07 PM)

awesome and easy to play!


@surreal (December 01, 2011 at 12:34 AM)

Great fucking arrangement


@sleepytime (December 01, 2011 at 2:06 AM)

PAHFECTO


@diralark (December 03, 2011 at 4:01 PM)

I appreciate your nice comments ! For me, the bars from 23th to 26th wasn't easy to play at beginning, but it becomes OK after some training :) Btw here's the original arrangement for piano by that so pretty & talentuous pianist called Aivi Tran : http://www.youtube.com/watch?v=wIs279NTi9Y


@Tropical_SkyFly (January 29, 2012 at 5:42 PM)

this is soooo awesome!! i am going to try and learn how to play this! thank you for the tab!! ^_^


@ChelseaRare (December 06, 2012 at 2:49 AM)

Good fucking job, dirakark. I'm mad I just saw this one now lol


@Alfa_ice (January 15, 2013 at 2:22 PM)

Is this entire song supposed to be played with "let ring" for every note? I find bar 53,54,55 and 59 to be impossible stretches or positioning to be able to let all the notes ring :/


@Alfa_ice (January 15, 2013 at 4:54 PM)

okey thanks.. I thought I was doing something wrong.. or I was a finger short lol.. I found it easier to play bar 21-22 on fret 5, 7 and 8, all notes will ring and closer switch to bar 23. This is great stuff! No one recorded this yet?


@Alfa_ice (January 25, 2013 at 11:38 PM)

V(4)                  V(4)
E  E   E  E  E  E     E  E   E  E  E  E
--5------------------|---------------------|
-----------------5---|-----------------5---|
--------------5------|--------------5------|
--0--------7---------|--0--------7---------|
-----7--8------------|-----7--8------------|
--0------------------|--0------------------|

I made a recording for it here: http://www.youtube.com/watch?v=NtKDKWRNMhQ Not the best, but I might change the last part and record it again.