Gametabs
Home
Tabs
Random

Midna's Lament

Average rating: 5.000

5 ratings

Composer:

Tabber:

Style:

Instrument:

Created: September 30, 2007 at 12:00 AM

            Game: The Legend of Zelda - Twilight Princess
Song: Midna's Lament
Composed by: Koji Kondo, Toru Minegishi, Asuka Ohta
Tabbed by: Not So Great Juja (Paul Horses)

Key:
~ = vibrato
p = pull-off
h = hammer-on
/ = slide
pm = palm-mute
tr = tremolo picking

Any questions or comments -
please, E-mail me at: [email protected]


e|--------------------------------------------------------------------------|
B|--------------------------------------------------------------------------|
G|--------------------------------------------------------12----------------|
D|-------------10-14-------------10-14--------------10-14----14-10----------|
A|----------12----------------12-----------------12----------------12-------|
E|-10-12-13----------10-12-13-----------10-12-13----------------------13-12-|


=============================================================================


e|--------------------------------------------------------------------------|
B|--------------18---17-----------------------------------------------------|
G|-14----------------------------17-----16----------14----16----------------|
D|-----------------------------------------------------17-------------------|
A|--------------------------------------------------------------------------|
E|--------------------------------------------------------------------------|
 |                                                                          |
e|--------------------------------------------------------------------------|
B|--------------------------------------------------------------------------|
G|--------------------------------------------------------------------------|
D|-------------10-14-------------10-14--------------10-14-------------10-14-|
A|----------12----------------12-----------------12----------------12-------|
E|-10-12-13----------10-12-13-----------10-12-13----------10-12-13----------|


=============================================================================


e|-----------------------17----------17-------------------------------------|
B|--------------------15----17----15----17----------------------------------|
G|--------------------------------------------------------------------------|
D|--------------------------------------------------------------------------|
A|--------------------------------------------------------------------------|
E|--------------------------------------------------------------------------|
 |                                                                          |
e|--------------------------------------------------------------------------|
B|--------------------------------------------------------------------------|
G|--------------------------------------------------------------------------|
D|----------------14----------------14-----------------14----------------14-|
A|----------12-14-------------12-14--------------12-14-------------12-14----|
E|-10-12-13----------10-12-13-----------10-12-13----------10-12-13----------|


=============================================================================


e|--------------------------------------------------------15----------------|
B|--------------18---17-----------------15----------17-18-------------------|
G|-14----------------------------17-----------------------------------------|
D|--------------------------------------------------------------------------|
A|--------------------------------------------------------------------------|
E|--------------------------------------------------------------------------|
 |                                                                          |
e|--------------------------------------------------------------------------|
B|--------------------------------------------------------------------------|
G|--------------------------------------------------------------------------|
D|-------------10-14-------------10-14--------------10-14-------------10-14-|
A|----------12----------------12-----------------12----------------12-------|
E|-10-12-13----------10-12-13-----------10-12-13----------10-12-13----------|


=============================================================================


e|-----------------------------20-------------------------------------------|
B|--------------------------18---20-18-17-----------------------------------|
G|--------------------------------------------------------------------------|
D|--------------------------------------------------------------------------|
A|--------------------------------------------------------------------------|
E|--------------------------------------------------------------------------|
 |                                                                          |
e|--------------------------------------------------------------------------|
B|--------------------------------------------------------------------------|
G|--------------------------------------------------------------------------|
D|----------------14----------------14-----------------14----------------14-|
A|----------12-14-------------12-14--------------12-14-------------12-14----|
E|-10-12-13----------10-12-13-----------10-12-13----------10-12-13----------|


=============================================================================


e|-17----------------------------------|
B|-------------------------------------|
G|-------------------------------------|
D|-------------------------------------|
A|-------------------------------------|
E|-------------------------------------|
 |                                     |
e|-------------------------------------|
B|-------------------------------------|
G|-------------------------------------|
D|-------------10-14-------------10--14|
A|----------12----------------12-------|
E|-10-12-13----------10-12-13----------|
 


=============================================================================


e|----------18-------17-----------------15--------------------------------15|
B|-16-------------------------18---------------------------------------18---|
G|--------------------------------------------------------------------------|
D|--------------------------------------------------------------------------|
A|--------------------------------------------------------------------------|
E|--------------------------------------------------------------------------|
 |                                                                          |
e|--------------------------------------------------------------------------|
B|--------------------------------------------------------------------------|
G|----------------10----------------10-----------------5------------------5-|
D|-------------12----------------12--------------5--6---------------5--6----|
A|-------10-13-------------10-13-----------3--6---------------3--6----------|
E|-11-13-------------11-13--------------4------------------4----------------|


=============================================================================


e|--------------------------------------|
B|-17-----------------------------------|
G|--------------------------------------|
D|--------------------------------------|
A|--------------------------------------|
E|--------------------------------------|
 |                                      |
e|--------------------------------------|
B|--------------------------------------|
G|-----------------6------------------6-|
D|-----------5--7---------------5--7----|
A|-----4--7---------------4--7----------|
E|--5------------------5----------------|


=============================================================================


e|--------------------------------------------------------------------------|
B|--------------18---17-----------------------------------------------------|
G|-14----------------------------17-----16----------14----16----------------|
D|-----------------------------------------------------17-------------------|
A|--------------------------------------------------------------------------|
E|--------------------------------------------------------------------------|
 |                                                                          |
e|--------------------------------------------------------------------------|
B|--------------------------------------------------------------------------|
G|--------------------------------------------------------------------------|
D|-------------10-14-------------10-14--------------10-14-------------10-14-|
A|----------12----------------12-----------------12----------------12-------|
E|-10-12-13----------10-12-13-----------10-12-13----------10-12-13----------|


=============================================================================


e|-----------------------17----------17-------------------------------------|
B|--------------------15----17----15----17----------------------------------|
G|--------------------------------------------------------------------------|
D|--------------------------------------------------------------------------|
A|--------------------------------------------------------------------------|
E|--------------------------------------------------------------------------|
 |                                                                          |
e|--------------------------------------------------------------------------|
B|--------------------------------------------------------------------------|
G|--------------------------------------------------------------------------|
D|----------------14----------------14-----------------14----------------14-|
A|----------12-14-------------12-14--------------12-14-------------12-14----|
E|-10-12-13----------10-12-13-----------10-12-13----------10-12-13----------|


=============================================================================


e|--------------------------------------------------------15----------------|
B|--------------18---17-----------------15----------17-18-------------------|
G|-14----------------------------17-----------------------------------------|
D|--------------------------------------------------------------------------|
A|--------------------------------------------------------------------------|
E|--------------------------------------------------------------------------|
 |                                                                          |
e|--------------------------------------------------------------------------|
B|--------------------------------------------------------------------------|
G|--------------------------------------------------------------------------|
D|-------------10-14-------------10-14--------------10-14-------------10-14-|
A|----------12----------------12-----------------12----------------12-------|
E|-10-12-13----------10-12-13-----------10-12-13----------10-12-13----------|


=============================================================================


e|-----------------------------20-------------------------------------------|
B|--------------------------18---20-18-17-----------------------------------|
G|--------------------------------------------------------------------14-16-|
D|--------------------------------------------------------------------------|
A|--------------------------------------------------------------------------|
E|--------------------------------------------------------------------------|
 |                                                                          |
e|--------------------------------------------------------------------------|
B|--------------------------------------------------------------------------|
G|--------------------------------------------------------------------------|
D|----------------14----------------14-----------------14----------------14-|
A|----------12-14-------------12-14--------------12-14-------------12-14----|
E|-10-12-13----------10-12-13-----------10-12-13----------10-12-13----------|


=============================================================================


e|--------------------------------------------------------------------------|
B|---------------------------------17---15----------------------------------|
G|-17-----------------------------------------------------------------------|
D|-----------------------------------------------17-------------------------|
A|--------------------------------------------------------------------------|
E|--------------------------------------------------------------------------|
 |                                                                          |
e|--------------------------------------------------------------------------|
B|-----------------5-----------------5-----------------3-----------------3--|
G|-----------4--5--------------4--5-----------------4-----------------4-----|
D|--------------------------------------------2--5--------------2--5--------|
A|-----7--8--------------7--8--------------5-----------------5--------------|
E|--5-----------------5-----------------3-----------------3-----------------|


=============================================================================


e|--------------------------------------------------------------------------|
B|--------------------------------------------------------------------------|
G|---------------------------------17----16---------------------------------|
D|--15-------------------------------------------14-------------------------|
A|--------------------------------------------------------------------------|
E|--------------------------------------------------------------------------|
 |                                                                          |
e|--------------------------------------------------------------------------|
B|-----------------1------------------1-------------------------------------|
G|--------------2------------------2-------------------4-----------------4--|
D|--------0--3---------------0--3----------------2--5--------------2--5-----|
A|-----3------------------3-----------------2--3--------------2--3----------|
E|--1------------------1-----------------0-----------------0----------------|


=============================================================================


e|--------------------------------------------------------------------------|
B|-----------15----------15-------------------------------------------------|
G|--------12---14-----12----14----------------------------------------------|
D|------------------------------------------------12------------------------|
A|---------------------------------------------10---12----------------------|
E|--------------------------------------------------------------------------|
 |                                                                          |
e|--------------------------------------------------------------------------|
B|-----------------1------------------1-----------------1-----------------1-|
G|--------------2------------------2-----------------2-----------------2----|
D|--------0--3---------------0--3--------------1--4--------------1--4-------|
A|-----3------------------3-----------------3-----------------3-------------|
E|--1------------------1-----------------2-----------------2----------------|


=============================================================================


e|-----------------------------------------------15-------------------------|
B|-----------17----------17-------------------------15----------------------|
G|--------14---16-----14----16-----------------17------17-16----------------|
D|--------------------------------------------------------------------------|
A|--------------------------------------------------------------------------|
E|--------------------------------------------------------------------------|
 |                                                                          |
e|--------------------------------------------------------------------------|
B|-----------------3------------------3-----------------3-----------------3-|
G|--------------4------------------4-----------------4-----------------4----|
D|--------2--5---------------2--5--------------3--6--------------3--6-------|
A|-----5------------------5-----------------5-----------------5-------------|
E|--3------------------3-----------------4-----------------4----------------|


=============================================================================


e|--------------------------------------------------------------------------|
B|--------------------------------------------------------3-----------------|
G|-----------------4-----------------4-----------------4-----4--------------|
D|--------------5-----------------5-----------------5-----------5-----------|
A|-----------7-----------------7-----------------7-----------------7--------|
E|--5--7--8-----------5--7--8-----------5--7--8-----------------------8--7--|

Then it all repeats from the beginning.

        
Comments

@Tom Logan (April 05, 2007 at 2:18 AM)

Excellent tab, good job ^^


@David (May 02, 2007 at 1:49 AM)

AAAAAAHHHHHHHHHHHH HER NAMES MIDNA


@ajp (November 18, 2007 at 6:00 PM)

tom logan? isnt that name from the word and void series? those own lol


@Tom Meinderts (November 25, 2007 at 2:43 PM)

wow, nice tab, but it's really hard to play the background at the right speed :S


@Anonymous (December 07, 2007 at 4:03 PM)

What's th' bpm?


@ronito (December 07, 2007 at 8:44 PM)

nvm


@Darkstar742 (February 01, 2008 at 1:41 AM)

I never took the time to play through this because it looked difficult and lasts a long time. But it's not all that complicated. It's just the speed thats hard to keep up with.


@Zelos (March 18, 2008 at 6:23 PM)

This has a really nice flow. Great tab.


@Andy (March 28, 2008 at 2:06 AM)

i feel i should point out one tiny mistake in the beginning in the first riff where the tab says it goes 12 14 on the third string, it sounds more to me like its 10 14. i play along with it and it sounds perfect


@Juja (July 15, 2008 at 5:48 PM)

Thanks, Andy. I fixed it, along with a few other mistakes I found.