Gametabs
Home
Tabs
Random

Memories of Impaz

Average rating: 5.000

1 ratings

Composer:

Tabber:

Style:

Instrument:

Created: September 25, 2008 at 12:00 AM

            The Legend of Zelda: Twilight Princess
Memories of Impaz
Composed by  Asuka Ohta, Koji Kondo, Toru Minegishi
Tabbed by hslesperance
9/16/08

Standard Tuning

Guitar 1

e-----------------0----3----------------------------------------------
B---1--------3----------------------3--1--0---------------------------
G----------------------------------------------------------0----------
D---------------------------------------------------------------------
A---------------------------------------------------------------------
E---------------------------------------------------------------------

e-----------------0----3------------7----7----------------5--7--8-----
B---1--------3--------------------------------------------------------
G---------------------------------------------------------------------
D---------------------------------------------------------------------
A---------------------------------------------------------------------
E---------------------------------------------------------------------

e---------13----12----------------------------------16----15----------
B---10----------------13----12----------------13----------------16----
G---------------------------------------------------------------------
D---------------------------------------------------------------------
A---------------------------------------------------------------------
E---------------------------------------------------------------------

e-----------------------------------------------------12-13-15--------
B---15----------------13------------------------13-15-----------------
G---------------------------------------------------------------------
D---------------------------------------------------------------------
A---------------------------------------------------------------------
E---------------------------------------------------------------------

Guitar 2

e---------------------------------------------------------------------
B---------------------------------------------------------------------
G---------0------0-2--------0-------------0-------------0------0-2----
D-------3------0--------0-2----2-0----0-2----2-0------3------0--------
A-----3---------------3-------------3---------------3-----------------
E---1--------3------------------------------------1--------3----------

e---------------------------------------------------------------------
B------1-3--1----------0----------------------0---------1------1-3--3-
G----0--------0------2----2--------0-2------2---------3-------------3-
D------------------2--------2-------------0---------1--------3--------
A--3-------------0-------------0-3------2---------3--------1----------
E---------------------------------------------------------------------

e---------0-1-0------------1-------------0-------------0--------------
B-------1-------1--------1----1--------1----1--------1----1-----------
G-----0----------------0--------0----0--------0----0--------0---------
D---------------------------------------------------------------------
A---3----------------3-------------3-------------3--------------------
E---------------------------------------------------------------------


        
Comments

@Ewahl (September 26, 2008 at 4:28 PM)

Sounds very nice. I really like this tab.


@FinalFantasyGuitarist (September 28, 2008 at 2:39 PM)

very nice