Gametabs
Home
Tabs
Random

Light Spirit Appears

Average rating: 5.000

2 ratings

Composer:

Tabber:

Style:

Instrument:

Created: July 14, 2013 at 12:00 AM

            3/4

Guitar 1:
     Q    Q    Q       H.              Q    Q    Q       Q    H         
E||-----------------|---------------|-----------------|----------------|
B||-----------------|---------------|-----------------|-------1--------|
G||--3----0----3----|--2------------|--3----0----3----|--1-------------|
D||-----------------|---------------|-----------------|----------------|
A||-----------------|---------------|-----------------|----------------|
E||-----------------|---------------|-----------------|----------------|

  Q    Q    Q       H.              Q    Q    Q       H.            
-----------------|---------------|-----------------|---------------|
--3---------3----|--1------------|--3--------------|--4------------|
-------3---------|---------------|--3----0----3----|--2------------|
-----------------|---------------|--5--------------|---------------|
-----------------|---------------|-----------------|--3------------|
-----------------|---------------|-----------------|---------------|

  Q    Q    Q       Q    H           Q    Q    Q       H.             
-----------------|----------------|-----------------|---------------||
--3--------------|--4----1--------|--4----6----4----|--3------------||
--3----0----3----|----------------|--3--------------|--5------------||
--5--------------|--6-------------|--5--------------|--4------------||
-----------------|--3-------------|-----------------|--0------------||
-----------------|----------------|-----------------|---------------||





Guitar 2:
     E  E  E  E  E  E     E  E  E  E  E  E     E  E  E  E  E  E   
E||-----------------3--|--------------------|-----------------3--|
B||--------------3-----|-----------------4--|--------------3-----|
G||-----------3--------|-----------2--5-----|-----------3--------|
D||--------5-----------|--------1-----------|--------5-----------|
A||-----5--------------|-----3--------------|-----5--------------|
E||--3-----------------|--3-----------------|--3-----------------|

  E  E  E  E  E  E     E  E  E  E  E   E     E  E  E  E  E   E   
-----------------6--|--------------6--10--|--------------8--10--|
--------------4-----|-----------8---------|-----------7---------|
--------3--5--------|--------8------------|--------7------------|
--------------------|-----8---------------|-----7---------------|
-----6--------------|--6------------------|--5------------------|
--3-----------------|---------------------|---------------------|

  E  E  E  E  E  E     E  E  E  E  E  E     E  E  E  E  E  E   
-----------------3--|--------------------|-----------------3--|
--------------3-----|-----------------4--|--------------3-----|
-----------3--------|-----------2--5-----|-----------3--------|
--------5-----------|--------1-----------|--------5-----------|
-----5--------------|-----3--------------|-----5--------------|
--3-----------------|--3-----------------|--3-----------------|

  E  E  E  E  E  E     E  E  E  E  E   E     E  E  E  E  E   E    
-----------------6--|--------------6--10--|--------------8--10--||
--------------4-----|-----------8---------|-----------7---------||
--------3--5--------|--------8------------|--------7------------||
--------------------|-----8---------------|-----7---------------||
-----6--------------|--6------------------|--5------------------||
--3-----------------|---------------------|---------------------||

Duration Legend
---------------
W - whole
H - half
Q - quarter
E - 8th
S - 16th
T - 32nd
X - 64th
. - note dotted
|-n-|  - n-tuplets
        
Comments

No comments yet