Gametabs
Home
Tabs
Random

Kakariko Village

Average rating: 5.000

4 ratings

Composer:

Tabber:

Style:

Instrument:

Created: September 30, 2007 at 12:00 AM

            Kakariko Village
The Legend of Zelda: Twilight Princess
Composed by Koji Kondo

12/20/06

e----6-----10------13
B--6-----6------11---
G--------------------
D--------------------
A--------------------
E--------------------

e--------------------------------------------------------------------------
B-------------------7h9h10--------------------------------7h9h10---12p10---
G----11----11-8--------------11p9h11-------11----11-8--------------------11
D--9----11-------------------------------9----11---------------------------
A--------------------------------------------------------------------------
E--------------------------------------------------------------------------

e----------------------------------------------------
B----------------------------------------------------
G---------------------------------9----------------11
D--9h11p9h11h12-----9-11h12p11h12-------11h12p11-9---
A----------------------------------------------------
E----------------------------------------------------

Repeat

e-----------------------------------------
B--7h9h10----7---7h9p7-------7------------
G--------------9-----------------9-7-6h7p6
D--------------------------9--------------
A-----------------------------------------
E-----------------------------------------

e------------------------------7-------7-9
B--7h9h10----7---7h9p7-----7-7-------7----
G--------------9--------------------------
D-----------------------------------------
A-----------------------------------------
E-----------------------------------------

e--7-9-10---9-----10-7
B---------------------
G---------------9-----
D---------------------
A---------------------
E---------------------

For the rhythm, it's just an alternation between B, A, and G barre chords.

B barre chord
e-----
B-----
G--4--
D--4--
A--2--
E-----

A barre chord
e-----
B-----
G-----
D--7--
A--7--
E--5--

G barre chord
e-----
B-----
G-----
D--3--
A--3--
E--5--

        
Comments

@Travis (February 27, 2007 at 11:06 PM)

archard...you already have Zelda on the WII!? you are the greatest. im playing this game right now, ahh this sounds so perfect!


@phantom_ghost (May 27, 2007 at 11:01 PM)

those are 5th chords not barres


@Anonymous (December 18, 2007 at 7:41 AM)

I think it sounds pretty cool to play

e--7-9-10---9-----10-7
B---------------------
G---------------9-----
D---------------------
A---------------------
E---------------------

and finish it off with

e--7------------------
B-----7-------------7-
G-------9-6h7p6--4----
D---------------------
A---------------------
E---------------------