Gametabs
Home
Tabs
Random

Kakariko Village

Average rating: 5.000

6 ratings

Composer:

Tabber:

Style:

Instrument:

Created: March 29, 2010 at 12:00 AM

            Kakariko Village
Legend of Zelda: Twilight Princess
composed by Koji Kondo
arranged by trickypat
TablEdited by trickypat
edited at: March 25th, 2010

standard tuning, no capo, bpm~87

youtube link: http://www.youtube.com/watch?v=gMrtXEowEZY

v1.oo
Easy to be played, easier to be tabbed. Intro=measure 1-4, afterwards loop from measure 5 until end.


    |       |       |       |          |       |       |       |          |       |       |       |         
E |----------------------------------|-----------------2----------------|----------------------------------|
B |----------------------------------|-4--------------------------------|----------------------------------|
G |-----------------4----------------|-------------4--------------------|----------------------------------|
D |-------------4---------------4----|----------------------------------|-4---------------4----------------|
A |----------------------------------|----------------------------------|-2---------------2----------------|
E |----------------------------------|----------------------------------|----------------------------------|
 
    |       |       |       |          |       |       |       |          |       |       |       |         
E |----------------------------------||--2---2---------------------2-4--|-5-----------2---2----------------|
B |----------------------------------|*----2---4------------------------|---------------5------------------|
G |----------------------------------||4--------------------------------|----------------------------------|
D |-2---------------2----------------||4---------------4----------------|-2---------------2----------------|
A |-0---------------0----------------|*2---------------2----------------|-0---------------0----------------|
E |----------------------------------||---------------------------------|----------------------------------|
 
    |       |       |       |          |       |       |       |          |       |       |       |         
E |---2---2---------------------2-4--|-5-----------7-5-2----------------|----------------------------------|
B |-----2---4------------------------|----------------------------------|-0-2-0-2-3-------------------0----|
G |-4--------------------------------|----------------------------------|----------------------------------|
D |-4---------------4----------------|-2---------------2----------------|----------------------------------|
A |-2---------------2----------------|-0---------------0----------------|-2---------------2----------------|
E |----------------------------------|----------------------------------|-3---------------3----------------|
 
    |       |       |       |          |       |       |       |        >1|       |       |       |         
E |----------------------------------|---------2-----------------------||---------------------------------||
B |-2-3-2-3-5-------------------2-4--|-2-------------------------------||---------------------------------*|
G |----------------------------------|-----4---------------------------||---------------------------------||
D |-2---------------2----------------|-4---------------4---------------||-4---------------4---------------||
A |-0---------------0----------------|-2---------------2---------------||-2---------------2---------------*|
E |----------------------------------|---------------------------------||---------------------------------||
 
  >2|       |       |       |          |       |       |       |          |       |       |       |         
E |-----------------------------2-4--|-5-----------------------2---0----|-2-4-2----------------------------|
B |----------------------------------|----------------------------------|----------------------------------|
G |----------------------------------|----------------------------------|-----------------------------4-4--|
D |-4---------------4----------------|-0---------------0----------------|-4---------------4----------------|
A |-2---------------2----------------|-0---------------0----------------|-2---------------2----------------|
E |----------------------------------|----------------------------------|----------------------------------|
 
    |       |       |       |         
E |-2-----------------------0--------|
B |-----------------------------3----|
G |----------------------------------|
D |----------------------------------|
A |-2---------------2----------------|
E |-3---------------3----------------|

    |       |       |       |          |       |       |       |          |       |       |       |         
E |-----------------------------2-4--|-5-----------------------2---0----|-2-4-2-----------------------2-2--|
B |-2-3-2----------------------------|----------------------------------|----------------------------------|
G |----------------------------------|----------------------------------|----------------------------------|
D |-2---------------2----------------|-0---------------0----------------|-4---------------4----------------|
A |-0---------------0----------------|-0---------------0----------------|-2---------------2----------------|
E |----------------------------------|----------------------------------|----------------------------------|
 
    |       |       |       |          |       |       |       |          |       |       |       |         
E |-7-----------5-7---------------7--|-9-----------0--------------------|----------------------------------|
B |-0---------------7-----------7----|---------------7-------------0-2--|-3---------------2-------------3--|
G |-0---------------0----------------|-9---------------6----------------|----------------------------------|
D |----------------------------------|-7---------------7----------------|-----------------2----------------|
A |----------------------------------|----------------------------------|-2---------------0----------------|
E |----------------------------------|----------------------------------|-3--------------------------------|
 
    |       |       |       |          |       |       |       |          |       |       |       |         
E |----------------------------------|----------------------------------|----------------------------------|
B |----------------------------------|----------------------------------|-----------------4----------------|
G |-4--------------------------------|----------------------------------|-4---------------------------4----|
D |-4---------------4----------------|-2---------------2-----------4----|-4-----------4---4----------------|
A |-2---------------2----------------|-0---------------0----------------|-2---------------2----------------|
E |----------------------------------|----------------------------------|----------------------------------|
 
    |       |       |       |         
E |-2--------------------------------|
B |----------------------------------|
G |----------------------------------|
D |-2---------------2----------------|
A |-0---------------0----------------|
E |----------------------------------|
 


        
Comments

@Finlay Birnie (June 12, 2011 at 1:41 PM)

Really awesome, nice to have a bass part and melody while still being really simple to play