Gametabs
Home
Tabs
Random

Hyrule Castle Mezzanine

Average rating: 5.000

2 ratings

Composer:

Tabber:

Style:

Instrument:

Created: June 11, 2010 at 12:00 AM

            Song: Hyrule Castle Mezzanine
Game: Legend Of Zelda: Twilight Princess
Composer(s): Koji Kondo, Asuka Ohta, Toru Minegishi
Tabbed by: Daugreano

This is just a bit of the beginning of the song...

Guitar: 

   W        W        H  Q   Q      Q    Q  E  E  S E  S   W        W        W
E|--------|--------|-------------|----------------------|--------|--------|--------|
B|--------|--------|-------------|----------------------|--------|--------|--------|
G|-0------|--------|--------0----|-1----3----------3----|-0------|--------|--------|
D|--------|-0------|-------------|------------4---------|--------|-0------|--------|
A|--------|--------|-------------|----------------------|--------|--------|--------|
E|--------|--------|-------------|----------------------|--------|--------|--------|

    Repeat from the beginning after the 8th measure...the second blank measure.

   W        W        W        H  Q   Q      Q    Q  E  E  S E  S   W        W
E|--------|--------|--------|-------------|----------------------|--------|--------|
B|--------|--------|--------|-------------|----------------------|--------|--------|
G|--------|-5------|-0------|--------5----|-10---8-----6----4----|-5------|-0------|
D|--------|--------|--------|-------------|----------------------|--------|--------|
A|--------|--------|--------|-------------|----------------------|--------|--------|
E|--------|--------|--------|-------------|----------------------|--------|--------|

   W        W        W        W        H  Q   Q      Q    Q  E  E  S E  S   W
E|--------|--------|--------|--------|-------------|----------------------|--------|
B|--------|--------|--------|--------|-------------|----------------------|--------|
G|--------|--------|-0------|--------|--------0----|-1----3----------3----|-0------|
D|--------|--------|--------|-0------|-------------|------------4---------|--------|
A|--------|--------|--------|--------|-------------|----------------------|--------|
E|--------|--------|--------|--------|-------------|----------------------|--------|

   W
E|--------|
B|--------|
G|--------|
D|-0------|
A|--------|
E|--------|

        
Comments

@Ukulelady (July 24, 2012 at 3:29 AM)

it's really easy to play. thank you!