Gametabs
Home
Tabs
Random

Wind God's Aria

Average rating: No ratings

Composer:

Tabber:

Style:

Instrument:

Created: March 15, 2017 at 12:00 AM

            Wind God's Aria 
from Legend of Zelda: The Wind Waker
Tabbed by DannyO

BPM ~ 120
4/4 time

   |-3--|   |---3---|   |-3--|   |---3---|     |---3---|   |---3---|   |-3--|   |---3---|  
   Q    E   E   E   E   Q    E   E   E   E     E   E   E   E   E   E   Q    E   E   E   E		
E|-5----5---3---2---0---2----------------0---|-5-----------3-----------2----2---2---3---5---|
B|---------------------------3---2---3-------|-----3---3-------3---3------------------------|
G|*------------------------------------------|----------------------------------------------|
D|*------------------------------------------|----------------------------------------------|
A|-------------------------------------------|----------------------------------------------|
E|-------------------------------------------|----------------------------------------------|

   |---3---|   |-3--|   |---3---|   |---3---|     |-3--|   |---3---|   |-3--|   |---3---|
   E   E   E   Q    E   E   E   E   E   E   E     Q    E   E   E   E   Q    E   E   E   E
E|-7---3---0---5----5---3---2-------0---2---0---|-0----0---------------0----0---5-----------|
B|------------------------------3---------------|----------3---2---3----------------3---3---|
G|----------------------------------------------|-------------------------------------------|
D|----------------------------------------------|-------------------------------------------|
A|----------------------------------------------|-------------------------------------------|
E|----------------------------------------------|-------------------------------------------|

   |---3---|   |-3--|   |---3---|   |---3---|     |---3---|   |---3---|        |---3---| 
   E   E   E   Q    E   E   E   E   E   E   E     E   E   E   E   E   E   Q    E   E   E
E|-3-----------2----2---0-------0---------------|-3---5---7---2-------2---0----0---2---0---|
B|-----3---3----------------3-------3---2---3---|-----------------3------------------------|
G|----------------------------------------------|-----------------------------------------*|
D|----------------------------------------------|-----------------------------------------*|
A|----------------------------------------------|------------------------------------------|
E|----------------------------------------------|------------------------------------------|

        
Comments

No comments yet