Gametabs
Home
Tabs
Random

Sage Laruto

Average rating: 4.667

3 ratings

Composer:

Tabber:

Style:

Instrument:

Created: September 30, 2007 at 12:00 AM

            Sage Laruto
The Legend of Zelda: The Windwaker
Tabbed By: Laura

e-------------------------------------------
G--5-------------------5--------------------
B----5-7-4-2-----0-2-----5-7-4-2-----0------
D-------------------------------------------
A-------------------------------------------
E-------------------------------------------

e--5-8-7-3-0-----5-8-7-3-12-----5-8-7-3-0-------0-
G---------------------------------------------3---
B-------------------------------------------------
D----------- --------------------------------------
A-------------------------------------------------
E-------------------------------------------------

repeat once, and then:

e-------------------------------------------
G--5-------------------5--------------------
B----5-7-4-2-----0-2-----5-7-4-2------------
D-------------------------------------------
A-------------------------------------------
E-------------------------------------------

        
Comments

@Snoggums (April 29, 2007 at 3:33 AM)

Such a pretty melody, I love it, sounds perfect! :D


@Jason (September 23, 2007 at 4:10 AM)

sounds nice and easy to remember!


@yoshistrings (November 24, 2007 at 6:10 PM)

very nice!


@MR T (January 13, 2008 at 9:46 PM)

nice, like it! in sync with good beat, easy to play and not hard at all.


@Bounty_Hunter (February 28, 2008 at 12:27 AM)

This melody seems to really resemble the Stone Tower theme from Majora's Mask. Hmm Good tab though


@denisse3 (October 12, 2010 at 12:31 AM)

are the cords supposto be like that....i not sure...i do like it though


@Cutlip242 (November 25, 2011 at 4:07 AM)

Cool tab except the G and B are mixed up