Gametabs
Home
Tabs
Random

Outset Island

Average rating: 5.000

1 ratings

Composer:

Tabber:

Style:

Instrument:

Created: January 20, 2015 at 12:00 AM

            The Legend of Zelda - Wind Waker - Outset Island

Composers -  Kenta Nagata, Hajime Wakai, Toru Minegishi, Koji Kondo
Tabbed by andersongs87

Tuning:
Guitar Standard (EADGBe)
Bass Standard (EADG)


MP3 : https://www.mediafire.com/?by88c2p60t84890
Wave : https://www.mediafire.com/?625nvtbfmezp7br
Youtube Cover : https://www.youtube.com/watch?v=hG9pSz0TuIA
Backing Track : https://www.mediafire.com/?qr49ertbg2hhy8i

01/18/2015

Guitar Lead
e-----------------------------------------|
B----14----------------11-13-11-13-14-16~-|
G-13----13-10----11-13--------------------|
D-------------11--------------------------|
A-----------------------------------------|
E-----------------------------------------|

e------------------------------------------------|---------------------------------------|
B---------------------------13-11----------------|----------------------------13-11-14---|
G-13-10----10-13-10---10-13-------13-11-10-------|-13-10----10-13-10----10-13---------13-|
D-------13----------13---------------------11-13-|-------13----------13------------------|
A------------------------------------------------|---------------------------------------|
E------------------------------------------------|---------------------------------------|

e-------------------------|-----16x-|--------------------------|------------------|
B-------------------------|---------|--------------------------|------------------|
G-------------------------|-13x-----|--------------------------|----------10-8----|
D-11---13\11--------------|---------|-15-13-16-15-11-13/15\13~-|-11-10-11------6~-|
A---13-------11-11/13\11~-|---------|--------------------------|------------------|
E-------------------------|---------|--------------------------|------------------|

e-------------------------------------------------|-------------------------------------------------|
B-13-13-------------------------------------------|-------------------------------------------------|
G-------13-13-15-15-------13-13-------11-11-------|-13h15p13-11h13p11-10h11p10----------------------|
D-------------------16-16-------15-15-------13-13-|----------------------------13-11-10-11-13-11----|
A-------------------------------------------------|---------------------------------------------11~-|
E-------------------------------------------------|-------------------------------------------------|

e----------------------------------------|----------------------------------------|
B----14----------------------------------|----------------------------------------|
G-13----13-10----------10----------10----|-13-13-13-15----------10-10-10-11-10----|
D-------------11-11-13----11-11-13----13-|-------------11-11-13----------------13-|
A----------------------------------------|----------------------------------------|
E----------------------------------------|----------------------------------------|

e----------------------------------------|----------------------------------------|----16x-|
B----14----------------------------------|----------------------------------------|--------|
G-13----13-10----------10----------10----|-13-13-13-15----------10-10-10-11-10----|-13x----|
D-------------11-11-13----11-11-13----13-|-------------11-11-13----------------13-|--------|
A----------------------------------------|----------------------------------------|--------|
E----------------------------------------|----------------------------------------|--------|

e----------------------------------------------------------------------|
B----14----------------------------------------------------------------|
G-13----13-10----10-11-13h15p13-11h13p11-10----10--------------10-8----|
D-------------13----------------------------13----11--11-10-11---------|
A-------------------------------------------------------------------11-|
E----------------------------------------------------------------------|

e------------------------------------------------|--------------------------------------------|
B-13-13------11-11-------------------------------|--------------------------------------------|
G-------13-13------11-11-13-13-10-10-11-11-------|-13h15p13-11h13p11-10-----------------------|
D------------------------------------------13-13-|----------------------13-11-10-11-13-11-----|
A------------------------------------------------|----------------------------------------11~-|
E------------------------------------------------|--------------------------------------------|

Bass

G-----6-----------6----------|-----6-----------6----------|
D-----------6-----------6----|-----------6-----------6----|
A--4-----------4-------------|--4-----------4-------------|
E----------------------------|----------------------------|

G-----6----------------------|----------------------------|
D-----------6--3--3-----3----|--4--4-----4--6--6-----4----|
A--4-------------------------|----------------------------|
E----------------------------|----------------------------|

G-----------6--3--3-----3----|--------------1--1----------|
D--3--3----------------------|--1--1-----1-----------6----|
A----------------------------|----------------------------|
E----------------------------|----------------------------|

G-----6----------------------|----------------------------|
D-----------6--3--3-----3----|--4--4-----4--6--6-----4----|
A--4-------------------------|----------------------------|
E----------------------------|----------------------------|

G-----------6--3--3-----3----|--------------1--1-----1----|
D--3--3----------------------|--1--1-----1----------------|
A----------------------------|----------------------------|
E----------------------------|----------------------------|

G-----------3-----------5----|--3--3--------3--3-----1----|
D--3--3--------3--3----------|-----------3----------------|
A----------------------------|----------------------------|
E----------------------------|----------------------------|

G-----------3-----------6----|--3--3--------3--3-----1----|
D--3--3--------3--3----------|-----------3----------------|
A----------------------------|----------------------------|
E----------------------------|----------------------------|

G-----------3-----------3----|-----------3-----------3----|
D--1--1--------1--1----------|--1--1--------1--1----------|
A----------------------------|----------------------------|
E----------------------------|----------------------------|

G--1--1----------------------|----------------------------|
D-----------1--6--6----------|-----6-----------6----------|
A-----------------------6----|-----------6-----------6----|
E----------------------------|--4-----------4-------------|

G-----6-----------6----------|-----6-----------6----------|
D-----------6-----------6----|-----------6-----------6----|
A--4-----------4-------------|--4-----------4-------------|
E----------------------------|----------------------------|

        
Comments

No comments yet