Gametabs
Home
Tabs
Random

Dragon Roost Island

Average rating: 5.000

6 ratings

Composer:

Tabber:

Style:

Instrument:

Created: February 01, 2014 at 12:00 AM

                                          Dragon Roost Island                               



The Legend of Zelda: The Wind Waker
Tabbed by: Isac Saleh
Dropped D tuning: DADGBE (Capo on 3rd fret)
Difficulty: Hard



     ^  v ^ v  ^                                                       
     E  S S E  Q.                        H.              H.            
E||--2--2-2-2--2------|---------------|--L------------|--L------------|
B||--4--4-4-4--4------|---------------|--L------------|--L------------|
G||--4--4-4-4--4------|---------------|--L------------|--L------------|
D||--4--4-4-4--4------|---------------|--L------------|--L------------|
A||--2--2-2-2--2------|---------------|--L------------|--L------------|
D||-------------------|---------------|---------------|---------------|


  Q.     Q    E     Q    Q    Q       Q.     Q    E     Q    Q    Q     
-----------------|-----------------|-----------------|-----------------|
--0------0----0--|-----------------|--0------0----0--|-----------------|
-----------------|--2----2----2----|-----------------|--2----2----2----|
--2------2----2--|--0----0----0----|--2------2----2--|--0----0----0----|
-----------------|-----------------|-----------------|-----------------|
-----------------|-----------------|-----------------|-----------------|


  Q.     E  E  E     Q    E  E  Q       Q.     Q    E     Q    Q    Q     
--3------2--3--2--|--5----L--2--L----|--0-----------L--|-----------------|
------------------|------------------|-----------------|--0---------L----|
------------------|------------------|-----------------|-----------------|
--2------2--L--2--|--0----0--L--0----|--2------2----2--|--0----0----0----|
------------------|------------------|-----------------|-----------------|
------------------|------------------|-----------------|-----------------|


  Q.     E  E  E     Q    E   E  Q       Q.     Q    E     Q    Q    E  E   
--3------2--3--2--|--5----L--10--L----|--7--------------|-------L----3--3--|
------------------|-------------------|-----------------|------------------|
------------------|-------------------|--0------0----0--|--0----0----0--L--|
--2------2--L--2--|--0----0---L--0----|-----------------|------------------|
------------------|-------------------|-----------------|------------------|
------------------|-------------------|-----------------|------------------|


  Q.     Q    E     Q    Q    E  E     Q.     Q    E     Q    Q    E  E   
--5------5-------|-------L-------5--|--3------0----L--|-------L-------3--|
-----------------|------------------|-----------------|------------------|
-----------------|------------------|-----------------|------------------|
--3------3----3--|--3----3----3--L--|--2------2----2--|--2----2----2--L--|
-----------------|------------------|-----------------|------------------|
-----------------|------------------|-----------------|------------------|


  Q.     Q    E     Q    Q    E  E     Q.     Q    E     Q    Q    Q     
--5------5-------|-------L-------3--|--0--------------|------------L----|
-----------------|------------------|--1--------------|------------L----|
-----------------|------------------|-----------------|-----------------|
--0------0----0--|--0----0----0-----|-----------------|-----------------|
-----------------|------------------|--3------3----3--|--3----3----3----|
-----------------|------------------|-----------------|-----------------|


  Q.     Q    E     Q    Q    Q         Q.     Q    E     Q    Q    Q     
--0--------------|------------L----||------------------|-----------------|
--1--------------|------------L----||---0------0----0--|-----------------|
-----------------|-----------------||*-----------------|--2----2----2----|
-----------------|--2--------------||*--2-----------2--|--0---------0----|
--3------3----3--|-------3---------||----------2-------|-------0---------|
-----------------|------------5----||---2-----------2--|--0---------0----|


  Q.     Q    E     Q    Q    Q       Q.     E  E  E     Q    E  E  Q     
-----------------|-----------------|--3------2--3--2--|--5----L--2--L----|
--0------0----0--|-----------------|------------------|------------------|
-----------------|--2----2----2----|------------------|------------------|
--2-----------2--|--0---------0----|--2------------2--|--0----------0----|
---------2-------|-----------------|---------2--L-----|-------0--L-------|
--2-----------2--|--0----4----0----|--2------------2--|--0----------0----|


  Q.     Q    E     Q    Q    Q       Q.     E  E  E     Q    E   E  Q     
--0-----------L--|-----------------|--3------2--3--2--|--5----L--10--L----|
-----------------|--0---------L----|------------------|-------------------|
-----------------|-----------------|------------------|-------------------|
--2-----------2--|--0---------0----|--2------------2--|--0--------L--0----|
---------2-------|-----------------|---------2--L-----|-------------------|
--2-----------2--|--0----4----0----|--2------------2--|--0----4------0----|


  Q.     Q    E     Q    Q    E  E     Q.     Q    E     Q    Q    E  E   
--7--------------|-------L----------|--5------5-------|-------L-------5--|
-----------------|------------8--8--|-----------------|------------------|
--0-----------0--|--0---------0-----|-----------------|------------------|
-----------------|------------------|--3-----------3--|--3---------3-----|
---------5-------|-------5----------|---------3-------|-------3----------|
--5-----------5--|--5---------5--L--|--3-----------3--|--3---------3--L--|


  Q.     Q    E     Q    Q    E  E     Q.     Q    E     Q    Q    E  E   
--3------0----L--|-------L-------3--|--5------5-------|-------L-------3--|
-----------------|------------------|-----------------|------------------|
-----------------|------------------|-----------------|------------------|
--2-----------2--|--2---------2-----|--0-----------0--|--0---------0-----|
---------2-------|-------2----------|---------0-------|-------0----------|
--2-----------2--|--2---------2--L--|--0-----------0--|--0---------0--L--|


                                      ^                                 
  Q.     Q    E     Q    Q    Q       Q.     Q    E     Q    Q    Q     
--0--------------|-----------------|-----------------|-----------------|
--------------1--|--3---------1----|--1--------------|--0--------------|
---------0-------|-------0---------|--2-----------2--|------------2----|
--2--------------|-----------------|---------2-------|-------2---------|
--3-----------3--|--3---------3----|--0-----------0--|--0---------0----|
-----------------|-----------------|---------2-------|-------2---------|


  Q.     Q    E     Q    Q    Q       Q.     Q    E     Q    Q    Q     
-----------------|-----------------|-----------------|-----------------|
--1--------------|-----------------|--0------0----0--|-----------------|
-----------------|--0--------------|-----------------|--2----2----2----|
--3-----------3--|------------3----|--2-----------2--|--0---------0----|
---------3-------|-------3---------|---------2-------|-------0---------|
--3-----------3--|--3---------3----|--2-----------2--|--0---------0----|


  Q.     Q    E     Q    Q    Q       Q.     Q    E     Q    Q    Q     
-----------------|-----------------|-----------------|-----------------|
--0------0----0--|-----------------|--0------0----0--|-----------------|
-----------------|--2----2----2----|-----------------|--2----2----2----|
--2-----------2--|--0---------0----|--2-----------2--|--0---------0----|
---------2-------|-----------------|---------2-------|-------0---------|
--2-----------2--|--0----4----0----|--2-----------2--|--0---------0----|


  Q.     Q    E     Q    Q    E  E     Q.     Q.        Q.     Q.      
-----------------|------------------|--0-------------|----------------|
--0------0----0--|---------------0--|--1------3------|--0-------------|
-----------------|--2----2----2-----|---------0------|--L------0------|
--2-----------2--|--0---------0-----|----------------|--2------L------|
---------2-------|------------------|--3------3------|--3------3------|
--2-----------2--|--0----4----0-----|----------------|----------------|


  Q.     Q    E     Q    Q    E  E     Q.     Q    E     Q    Q    E  E   
-----------------|------------------|-----------------|------------------|
-----------------|------------------|-----------------|------------------|
--2--------------|-------L-------0--|--2--------------|-------L-------0--|
--0------4----0--|--0----4----0-----|--2------2----2--|--2----2----2-----|
--2------2----2--|--2----2----2-----|---------0-------|-------0----------|
-----------------|------------------|--2-----------2--|--2---------2--L--|


  Q.     Q    E     Q    Q    E  E     Q.     Q.        Q.     Q.      
-----------------|------------------|--0-------------|----------------|
-----------------|---------------0--|--1------3------|--0-------------|
--2--------------|-------L----------|--0------0------|---------0------|
--0------4----0--|--0----4----0-----|---------2------|--2-------------|
--2------2----2--|--2----2----2-----|--3------3------|--3------3------|
-----------------|------------------|----------------|----------------|


  Q.     Q    E     Q    Q    E  E     Q.     Q    E     Q    Q    E   E   
-----------------|------------------|-----------------|-------------------|
-----------------|------------------|--2--------------|-------------------|
--2--------------|---------------0--|--2-----------2--|--4---------2p--0--|
--0------4----0--|--0----4----0-----|--2------2-------|-------2-----------|
--2------2----2--|--2----2----2-----|--0-----------0--|--0---------0------|
-----------------|------------------|-----------------|-------------------|


  Q.     Q    E     Q    Q    Q       Q.     Q    E     Q    Q    Q     
-----------------|------------L----|-----------------|-----------------|
-----------------|-----------------|-----------------|-----------------|
--2------L-------|--0---------L----|-----------------|-----------------|
--3-----------3--|-------3---------|--3------L----3--|--3---------3----|
--3------3-------|------------3----|--3------3-------|-------3---------|
--3-----------3--|--3---------3----|--3-----------3--|--3---------3----|


  Q.     Q    E     Q    Q    Q       Q.     Q    E     Q    Q    Q     
-----------------|-----------------|-----------------|-----------------|
--0------0----0--|-----------------|--0------0----0--|-----------------|
-----------------|--2----2----2----|-----------------|--2----2----2----|
--2-----------2--|--0---------0----|--2-----------2--|--0---------0----|
---------2-------|-------0---------|---------2-------|-----------------|
--2-----------2--|--0---------0----|--2-----------2--|--0----4----0----|


  Q.     E  E  E     Q    E  E  Q       Q.     Q    E     Q    Q    Q     
--3------2--3--2--|--5----L--2--L----|--0-----------L--|-----------------|
------------------|------------------|-----------------|--0---------L----|
------------------|------------------|-----------------|-----------------|
--2------------2--|--0----------0----|--2-----------2--|--0---------0----|
---------2--L-----|-------0--L-------|---------2-------|-----------------|
--2------------2--|--0----------0----|--2-----------2--|--0----4----0----|


  Q.     E  E  E     Q    E   E  Q       Q.     Q    E     Q    Q    E  E   
--3------2--3--2--|--5----L--10--L----|--7--------------|-------L----------|
------------------|-------------------|-----------------|------------8--8--|
------------------|-------------------|--0-----------0--|--0---------0-----|
--2------------2--|--0-----------0----|-----------------|------------------|
---------2--L-----|-------------------|---------5-------|-------5----------|
--2------------2--|--0----4------0----|--5-----------5--|--5---------5--L--|


  Q.     Q    E     Q    Q    E  E     Q.     Q    E     Q    Q    E  E   
--5------5-------|-------L-------5--|--3------0----L--|-------L-------3--|
-----------------|------------------|-----------------|------------------|
-----------------|------------------|-----------------|------------------|
--3-----------3--|--3---------3-----|--2-----------2--|--2---------2-----|
---------3-------|-------3----------|---------2-------|-------2----------|
--3-----------3--|--3---------3--L--|--2-----------2--|--2---------2--L--|


  Q.     Q    E     Q    Q    E  E     Q.     Q    E     Q    Q    Q     
--5------5-------|-------L-------3--|--0--------------|-----------------|
-----------------|------------------|--------------1--|--3---------1----|
-----------------|------------------|---------0-------|-------0---------|
--0-----------0--|--0---------0-----|--2--------------|-----------------|
---------0-------|-------0----------|--3-----------3--|--3---------3----|
--0-----------0--|--0---------0--L--|-----------------|-----------------|


  ^                                                                     
  Q.     Q    E     Q    Q    Q       Q.     Q    E     Q    Q    Q     
-----------------|-----------------|-----------------|-----------------|
--1--------------|--0--------------|--1--------------|-----------------|
--2-----------2--|------------2----|-----------------|--0---------L----|
---------2-------|-------2---------|--3-----------3--|------------3----|
--0-----------0--|--0---------0----|---------3-------|-------3---------|
---------2-------|-------2---------|--3-----------3--|--3---------3----|


  Q.     Q    E     Q    Q    Q       Q.     Q    E     Q    Q    Q     
-----------------|-----------------|-----------------|-----------------|
--0------0----0--|-----------------|--0------0----0--|-----------------|
-----------------|--2----2----2----|-----------------|--2----2----2----|
--2-----------2--|--0---------0----|--2-----------2--|--0---------0----|
---------2-------|-------0---------|---------2-------|-----------------|
--2-----------2--|--0---------0----|--2-----------2--|--0----4----0----|


  Q.     Q    E     Q    Q    Q       Q.     Q    E     Q    Q    Q     
-----------------|-----------------|-----------------|-----------------|
--0------0----0--|-----------------|--0------0----0--|-----------------|
-----------------|--2----2----2----|-----------------|--2----2----2----|
--2-----------2--|--0---------0----|--2-----------2--|--0---------0----|
---------2-------|-------0---------|---------2-------|-----------------|
--2-----------2--|--0---------0----|--2-----------2--|--0----4----0----|


  W                  
--0----------------||
--0----------------||
-------------------||
--2----------------||
-------------------||
--2----------------||




Duration Legend
---------------
W - whole
H - half
Q - quarter
E - 8th
S - 16th
T - 32nd
X - 64th
. - note dotted
|-n-|  - n-tuplets


Tablature Legend
----------------
L - tied note
x - dead note
g - grace note
(n) - ghost note
> - accentuded note
NH - natural harmonic
AH - artificial harmonic
TH - tapped harmonic
SH - semi harmonic
PH - pitch harmonic
h - hammer on
p - pull off
b - bend
br - bendRelease
pb - preBend
pbr - preBendRelease
brb - bendReleaseBend
\n/ - tremolo bar dip
\n - tremolo bar dive
-/n - tremolo bar Release up
/n\ - tremolo bar inverted dip
/n - tremolo bar return
-\n - tremolo bar Release down
S - shift slide
s - legato slide
/ -  slide into from below or out of upwards
\ -  slide into from above or out of downwards
~ - vibrato
W - wide vibrato
tr - trill
TP - tremolo picking
T - tapping
S - slap
P - pop
< - fade in
^ - brush up
v - brush down

        
Comments

@NostalgiaTunez (February 01, 2014 at 2:05 PM)

I like it! Keeps the integrity of the original rhythms very well.