Gametabs
Home
Tabs
Random

Droplets Temple

Average rating: 4.667
3 ratings

Composer:

Tabber:

Style:

Instrument:

Created: September 30, 2007 at 12:00 AM

            Droplets Temple
The Legend of Zelda: The Minish Cap
Composed by Koji Kondo

8/1/06

e--3-----6-----------------3-----6--------------
B----3-4---------------------3-4----------------
G----------------3-----3-----------------3-----3
D------------0-1---0-1---------------0-1---0-1--
A-----------------------------------------------
E-----------------------------------------------

e-----------1---------1-0--------
B-------------------------1---3--
G-----0-2-3-----0-2-3-----------0
D--------------------------------
A--------------------------------
E--------------------------------

e------------------------1---------1-3-0----3
B-----------------------------------------1--
G------3-----3-----0-2-3-----0-2-3-----------
D--0-1---0-1---------------------------------
A--------------------------------------------
E--------------------------------------------

e-------------------------------------
B----------------1-0------------------
G------3-----3-------3-----3-2-1-----0
D--0-1---0-1--------------------------
A-------------------------------------
E-------------------------------------

        
Comments