Gametabs
Home
Tabs
Random

Trailer Theme

Average rating: 4.750

4 ratings

Composer:

Tabber:

Style:

Instrument:

Created: January 09, 2010 at 12:00 AM

            The Legend of Zelda Spirit Tracks- Trailer Theme
Game:The Legend of Zelda Spirit Tracks
Composer: Koji Kondo
Tabber: André
Date:12/12/09

Begining Solo:
e--5--3--1--0---7--5--3--2-------
B----------------------------3--5
G--------------------------------
D--------------------------------
A--------------------------------
E--------------------------------
Main Part:
e---3--0-5--3-5-7--10--7------7-
B-3-----------------------10----
G------------------------------7
D-------------------------------
A-------------------------------
E-------------------------------

e---3--0-5--3-5-7--10--7--------10
B-3-----------------------10--8---
G---------------------------------
D---------------------------------
A---------------------------------
E---------------------------------

e---3--0-5--3-5-7--10--7------7-
B-3-----------------------10----
G------------------------------7
D-------------------------------
A-------------------------------
E-------------------------------

e---3--0-5--3-5-7--10--7--------12
B-3-----------------------10--8---
G---------------------------------
D---------------------------------
A---------------------------------
E---------------------------------

e-10-8-7--5-6-7----5-3-0----
B---------------------------
G---------------------------
D---------------------------
A---------------------------
E---------------------------

e-3-7-9--14--7-5-7----------
B---------------------------
G---------------------------
D---------------------------
A---------------------------
E---------------------------

e-9-12-16--17---17-19-16----
B---------------------------
G---------------------------
D---------------------------
A---------------------------
E---------------------------
Main Part 2:
e-7-5--4-2-4----2-----------
B--------------------5--2---
G---------------------------
D---------------------------
A---------------------------
E---------------------------

e-5--4-2-4------------------
B---------------------------
G---------------------------
D---------------------------
A---------------------------
E---------------------------

e-----7-8--7-8-7--5-7--0--3--5--5-5---------
B-0-5--------------------------------3--6-5-
G-------------------------------------------
D-------------------------------------------
A-------------------------------------------
E-------------------------------------------

e-------8----8--7--5--7----0--3--10-
B-4--5------------------------------
G-----------------------------------
D-----------------------------------
A-----------------------------------
E-----------------------------------

Final:
e------------2-3-5--------------------14-15-17
B-3----3-3-5----------15-----15-15-17---------
G---2--------------------14-------------------
D---------------------------------------------
A---------------------------------------------
E---------------------------------------------

This music it's perfect!! One of the my favourites of all zeldas!!
        
Comments

@ladybug95 (January 18, 2010 at 7:42 PM)

This is really good! I really like this song a lot too Keep up the good work! :D


@sly cooper (November 05, 2010 at 4:55 PM)

Amazing says it all I love this song!!