Gametabs
Home
Tabs
Random

Song of Water's Restoration

Average rating: No ratings

Composer:

Tabber:

Style:

Instrument:

Created: January 09, 2013 at 12:00 AM

            Song of Water's Restoration
Spirit Tracks


Guitar 1

e-----------------5--------------------------------------------------
B------5-----7-------------------------------------------------------
G--------------------------------------------------------------------
D--------------------------------------------------------------------
A--------------------------------------------------------------------
E--------------------------------------------------------------------

Guitar 2

e-----------------------9/10----9-9h10-------------------------------
B--------5h7p5-------------------------12---------10-----------------
G---6p4--------7---------------------------12p11---------------------
D--------------------------------------------------------------------
A--------------------------------------------------------------------
E--------------------------------------------------------------------

e--------------------------------7--------10--8h10p8--------12p10----
B----------5h7p5----------7-8-10---10--8----------------10-----------
G---4h6p4--------7---------------------------------------------------
D--------------------------------------------------------------------
A--------------------------------------------------------------------
E--------------------------------------------------------------------


Single guitar version

e-----------------------5----9/10----9-9h10---------------------------------
B--------5h7p5----5--7----------------------12---------10-----10------------
G---6p4--------7--------------------------------12p11--9--11----------------
D---------------------------------------------------------------------------
A---------------------------------------------------------------------------
E---------------------------------------------------------------------------

e-------------------------5---------7--------10--8h10p8--------12p10--------
B----------5h7p5----5--7-----7-8-10---10--8----------------10------------10-
G---4h6p4--------7------------------------------------------------9--11-----
D---------------------------------------------------------------------------
A---------------------------------------------------------------------------
E---------------------------------------------------------------------------
        
Comments

No comments yet