Gametabs
Home
Tabs
Random

Song of Sand's Restoration

Average rating: No ratings

Composer:

Tabber:

Style:

Instrument:

Created: August 20, 2011 at 12:00 AM

            Lokomo Duet with Rael                                 
~Loz Spirit Tracks~
Composed by: Toru Minegishi, Manaka Tominaga, Asuka Ota, Koji Kondo

Spirit Flute
E|-----0---0--------
B|-0-3---3---0------
G|----------------- x4
D|-----------------
A|-----------------
E|-----------------

Lokomo Rael's Part
E|-----0---0---------0---0-7-5-3-8-7-5-3-1--
B|-0-3---3---0---0-3---3--------------------
G|------------------------------------------
D|------------------------------------------
A|------------------------------------------
E|------------------------------------------

E|-----0---0--------0---0-3-10-5-7--
B|-0-3---3---0--0-3---3-------------
G|----------------------------------
D|----------------------------------
A|----------------------------------
E|----------------------------------
        
Comments

No comments yet