Gametabs
Home
Tabs
Random

Song of Light

Average rating: No ratings

Composer:

Tabber:

Style:

Instrument:

Created: January 19, 2011 at 12:00 AM

            Song of Light
The Legend of Zelda: Spirit Tracks
Composed by Toru Minegishi, Manaka Tominaga, Asuka Ota, Koji Kondo
Tabbed by hslesperance
1/19/11

Standard Tuning




Guitar 1


  Q=140                   Q=93

 4/4

  H    H      H    H      H    Q  S S S S
|-5----4----|-2----0----|---------5-4-2-0-|
|-----------|-----------|-3---------------|
|-----------|-----------|-----------------|
|-----------|-----------|-----------------|
|-----------|-----------|-----------------|
|-----------|-----------|-----------------|


   H.                                   S  S  S  S
|---------------------------------------5--4--2--0-|
|--3-----------------------------------------------|
|--------------------------------------------------|
|--------------------------------------------------|
|--------------------------------------------------|
|--------------------------------------------------|


   W                                                  W
|-------------------------------------------------|-------------|
|--2----------------------------------------------|-------------|
|-------------------------------------------------|-------------|
|-------------------------------------------------|-------------|
|-------------------------------------------------|-------------|
|-------------------------------------------------|-------------|

  Q=103

 1/4       3/4
  S S S S    H                       S  S  S  S
|-5-4-2-0-|--------------------------5--4--2--0-|
|---------|--3----------------------------------|
|---------|-------------------------------------|
|---------|-------------------------------------|
|---------|-------------------------------------|
|---------|-------------------------------------|


   H.                             +Q   H
|-------------------------------|-------------*|
|--2----------------------------|-(2)---------*|
|-------------------------------|-------------*|
|-------------------------------|-------------*|
|-------------------------------|-------------*|
|-------------------------------|-------------*|




Guitar 2


  Q=140                   Q=93

 4/4

  W           W           W
|-----------|-----------|-----------------|
|-----------|-----------|-----------------|
|-----------|-----------|-----------------|
|-----------|-----------|-----------------|
|-----------|-----------|-----------------|
|-----------|-----------|-----------------|


   S   S  S  S  S  S  S  S  S  S  S  S  S  S  S  S
|-14-----------17-16-14----------------------------|
|-----15----------------17-15----------15-14-15-17-|
|--------16-14----------------16-14----------------|
|-----------------------------------16-------------|
|--------------------------------------------------|
|--------------------------------------------------|


   S  S  S  S  S  S  S  S  S  S  S  S  S  S  S  S     H    H
|-------------17-16-14-------------------------16-|-^19---------|
|-14-17----------------17-14-------14-15-14-17----|-^17---------|
|-------------------------------13----------------|-^16---------|
|-------14-------------------14-------------------|-^14---------|
|----------16-------------------------------------|-------------|
|-------------------------------------------------|-------------|

  Q=103

 1/4       3/4

  W          S  S  S  S  S  S  S  S  S  S  S  S
|---------|-14----------17-16-14----------------|
|---------|----15----------------17-15----------|
|---------|-------16-14----------------16-14----|
|---------|----------------------------------16-|
|---------|-------------------------------------|
|---------|-------------------------------------|


   S   S  S  S  S  S  S  S   Q     W
|--------------12----12-16-^19--|-------------*|
|--------12-14----14-------^17--|-------------*|
|-----13-------------------^16--|-------------*|
|-14-----------------------^14--|-------------*|
|-------------------------------|-------------*|
|-------------------------------|-------------*|




Guitar 3


  Q=140                   Q=93

 4/4

  W           W           W
|-----------|-----------|-----------------|
|-----------|-----------|-----------------|
|-----------|-----------|-----------------|
|-----------|-----------|-----------------|
|-----------|-----------|-----------------|
|-----------|-----------|-----------------|


   E      S  S  S  S  S  S  E     S  S  S  S  S  S
|---------------------2-----------------2-----5----|
|---------------3-----------------3----------------|
|---------2--------------------------4-----4-----4-|
|------------4-----4-----4--2----------------------|
|--2-----------------------------------------------|
|--------------------------------------------------|


   E     S  S  S  S  S  S  E     S  S  S  S  E        W
|--------------0-----4-----7-----0-----4-----0----|-------------|
|--------2----------------------------------------|-------------|
|-----------1-----1-----1-----------1-----1-------|-------------|
|-------------------------------------------------|-------------|
|--0----------------------------------------------|-------------|
|-------------------------------------------------|-------------|


  Q=103

 1/4       3/4

  W          E     S  S  S  S  S  S  E     S  S
|---------|--------------------2----------------|
|---------|--------------3-----------------3----|
|---------|--------2--------------2-----------4-|
|---------|-----------4-----4--------2----------|
|---------|--2----------------------------------|
|---------|-------------------------------------|


   E      S  S  S  S  S  S   Q    +H      Q
|---------------0-----4------0--|-(0)---------*|
|---------2---------------------|-------------*|
|------------1-----1-----1------|-------------*|
|-------------------------------|-------------*|
|--0----------------------------|-------------*|
|-------------------------------|-------------*|




Guitar 4


  Q=140                 Q=93

 4/4

  W          W          W
|----------|----------|------|
|----------|----------|------|
|----------|----------|------|
|----------|----------|------|
|----------|----------|------|
|----------|----------|------|


  Q   S  S  S  S  H       H     Q   Q     H.      Q
|----17-16-14----------|-12------------|-------------|
|-------------17-15----|-------12--15--|-14----------|
|----------------------|---------------|-------------|
|----------------------|---------------|-------------|
|----------------------|---------------|-------------|
|----------------------|---------------|-------------|

  Q=103

 1/4  3/4

  W    W        W        W
|----|--------|--------|------*|
|----|--------|--------|------*|
|----|--------|--------|------*|
|----|--------|--------|------*|
|----|--------|--------|------*|
|----|--------|--------|------*|




Guitar 5


  Q=140                 Q=93

 4/4

  W          W          W
|----------|----------|------|
|----------|----------|------|
|----------|----------|------|
|----------|----------|------|
|----------|----------|------|
|----------|----------|------|


  H               H       W             +H.      Q
|----------------------|--------------|-------------|
|-7--------------10----|--9-----------|-(9)---------|
|----------------------|--------------|-------------|
|----------------------|--------------|-------------|
|----------------------|--------------|-------------|
|----------------------|--------------|-------------|

  Q=103

 1/4  3/4

  W    W        W        W
|----|--------|--------|------*|
|----|--------|--------|------*|
|----|--------|--------|------*|
|----|--------|--------|------*|
|----|--------|--------|------*|
|----|--------|--------|------*|

W - whole
H - half
Q - quarter
E - 8th
S - 16th

+ - note tied to previous
. - note dotted

        
Comments

No comments yet