Gametabs
Home
Tabs
Random

Song of Forest's Restoration

Average rating: No ratings

Composer:

Tabber:

Style:

Instrument:

Created: August 20, 2011 at 12:00 AM

            

Lokomo duet with Gage                        
~Loz Spirit Tracks~
Composed by: Toru Minegishi, Manaka Tominaga, Asuka Ota, Koji Kondo


    Spirit Flute 
E|-2-4-5----------------
B|----------------------
G|---------------------- x4
D|----------------------
A|----------------------
E|----------------------

    Lokomo Part
E|---0-7-5-0--7-5-7-9-0-
B|-2--------------------
G|----------------------
D|----------------------
A|----------------------
E|----------------------

E|---0-7-5-0--5--12-12-10-
B|-2----------------------
G|------------------------
D|------------------------
A|------------------------
E|------------------------

E|-12-5--10-7-0-5---------
B|------------------------
G|------------------------
D|------------------------
A|------------------------
E|------------------------
        
Comments

No comments yet