Gametabs
Home
Tabs
Random

Link & Zelda's Duet

Average rating: 4.500

2 ratings

Composer:

Tabber:

Style:

Instrument:

Created: January 10, 2010 at 12:00 AM

            The Sacred Duet
The Legend of Zelda: Spirit Tracks
Composed by Toru Minegishi, Manaka Tominaga, Asuka Ota, Koji Kondo
Tabbed by hslesperance
1/9/10

Standard Tuning


e---9-------------------9-------------------------------------
B-------------------------------------------------------------
G--------6----6----6---------6----6----6----------------------
D-------------------------------------------------------------
A-------------------------------------------------------------
E-------------------------------------------------------------


Spirit Flute
e-------------------------------------------------------------
B---7--10--9-----7--------------------7--10--9-----7----------
G-------------9---------------------------------9-------------
D-------------------------------------------------------------
A-------------------------------------------------------------
E-------------------------------------------------------------

Zelda

e-------------------------------------------------------------
B---7--10--9-----7--------------------7--10--9-----7----------
G-------------9---------------------------------9-------------
D-------------------------------------------------------------
A-------------------------------------------------------------
E-------------------------------------------------------------

e-------------------------------------------------------------
B---10-10---7-----7-10--------7-------------------------------
G---------------9------9--6-9---------------------------------
D-------------------------------------------------------------
A-------------------------------------------------------------
E-------------------------------------------------------------

e-------------------9-----------------------------------------
B---10-10---7-----7----------7--------------------------------
G---------------9-----9--6-9----------------------------------
D-------------------------------------------------------------
A-------------------------------------------------------------
E-------------------------------------------------------------

e-------------------------------------------------------------
B---10-10---7-----7-10--------7-------------------------------
G---------------9------9--6-9---------------------------------
D-------------------------------------------------------------
A-------------------------------------------------------------
E-------------------------------------------------------------

e-------------------9-----------------------------------------
B---10-10---7-----7----------7--------------------------------
G---------------9-----9--6-9----------------------------------
D-------------------------------------------------------------
A-------------------------------------------------------------
E-------------------------------------------------------------

e-----------------7-------------------9-------7---------------
B---10-10-8----------10----10-10-8------10------10-8----10--7-
G-------------------------------------------------------------
D-------------------------------------------------------------
A-------------------------------------------------------------
E-------------------------------------------------------------

e---9--10----7-----------------------12--10-------------------
B--------------10-8-10-----------------------12----10------9--
G----------------------9----------9---------------------------
D-------------------------------------------------------------
A-------------------------------------------------------------
E-------------------------------------------------------------

0:41
e-------------------------------------------------------------
B---------19--------------------------------------------------
G------16-----------------------------------------------------
D---16--------------------------------------------------------
A-------------------------------------------------------------
E-------------------------------------------------------------

0:43
Play 2 times
e-------------------------------------------------------------
B-------------------------------------------------------------
G-------------------------------------------------------------
D-------------------------------------------------------------
A---5-------4--------5----7----9------------------------------
E---5-------5--------5----L----L------------------------------

0:49
e-----------------12h14p12-10-9--------10-12------------------
B----------12-10-----------------------------10---------------
G-------9-----------------------------------------------------
D---11--------------------------------------------------------
A-------------------------------------------------------------
E-------------------------------------------------------------

0:58
e-------------------------------------------------------------
B---5-3-------------------------------------------------------
G-------6--6p5p4p3--------------------------------------------
D-------------------------------------------------------------
A-------------------------------------------------------------
E-------------------------------------------------------------

1:01
e-------------------------12-14-------------------------------
B---14h15p14p12--------14-------14----------------------------
G-------------------------------------------------------------
D-------------------------------------------------------------
A-------------------------------------------------------------
E-------------------------------------------------------------

e-------------------------12-14-17--14------------------------
B---14h15p14p12--------14-------------------------------------
G-------------------------------------------------------------
D-------------------------------------------------------------
A-------------------------------------------------------------
E-------------------------------------------------------------

e-------------------------------------------------------------
B---5-----------------5-7-------------------------------------
G-----6h7p6--4------6-----6-----------4-----------------------
D----------------------------7--4--7--------------------------
A-------------------------------------------------------------
E-------------------------------------------------------------

h - hammer on
p - pull off
L - tied note

        
Comments

@ladybug95 (January 18, 2010 at 7:39 PM)

Wonderful song, great job tabbing it!