Gametabs
Home
Tabs
Random

Linebeck Trading Post

Average rating: 3.000

1 ratings

Composer:

Tabber:

Style:

Instrument:

Created: January 02, 2010 at 12:00 AM

            Linebeck Trading Post
The Legend of Zelda: Spirit Tracks
Composer: Koji Kondo
Tabbed by Haley T.
December 30, 2009

e-11-10-8-6-5-3---3---5---6-8-10-6--6-8-10-6-------------
B---------------3---3---3----------8-8-------8-6---6-8---
G------------------------------------------------7-------
D--------------------------------------------------------
A--------------------------------------------------------
E--------------------------------------------------------

e---3---5---6-8-10-6--6-8-10-6-----------
B-3---3---3----------8-8-------8-6---6-8-
G-------------------------------------7--
D----------------------------------------
A----------------------------------------
E----------------------------------------

e----11-11-13-11-10-------------10-10---------11-10-8-10--
B-8-----------------13-13-11-13-------13-11-9-------------
G---------------------------------------------------------
D---------------------------------------------------------
A---------------------------------------------------------
E---------------------------------------------------------

e----11-11-13-11-10-------------10-9-10-11----12-15-14-
B-8-----------------13-13-11-13------------13----------
G------------------------------------------------------
D------------------------------------------------------
A------------------------------------------------------
E------------------------------------------------------
	((Repeat as many times as you like))

        
Comments

@karathrow (November 26, 2011 at 9:20 AM)

I love this song but this tab leaves something to be desired.