Gametabs
Home
Tabs
Random

Skyloft

Average rating: 4.714

7 ratings

Composer:

Tabber:

Style:

Instrument:

Created: December 03, 2011 at 12:00 AM

            Skyloft
The Legend of Zelda: Skyward Sword
Nintendo Wii
Composed by Mahito Yokota, Hajime Wakai
Tabbed by John Adams
12/2/2011


e||---9/10-9------------------------------7-10-9---------------------------------7----------------|
B||----------10----8-7-8--------7-8----10--------10-7------7-8-10--------7-8-10----10-------------|
G||*--------------------------9------------------------------------7-7------------------10/11-7---|
D||*--------------------------------------------------------------------------------------------7-|
A||-----------------------------------------------------------------------------------------------|
E||-----------------------------------------------------------------------------------------------|

--9/10-9-----------------------------7-10-9---------------------------------7-10-9------------------------------|
---------10----8-7-8--------7-8---10--------10-7------7-8-10--------7-8-10---------10-7-8h9h10---8-7------------|
--------------------------9-----------------------------------7-7------------------------------------7--7h8h9-7-|
----------------------------------------------------------------------------------------------------------------|
----------------------------------------------------------------------------------------------------------------|
----------------------------------------------------------------------------------------------------------------|

Trumpet starts
----------------------------------------10----------------------------------7h8h9--7-----|
------7-8-10----8-7------------7-8-10------10---8-7--------7-------------10-----------10-|
--7-9---------------9------7-9----------------------9----7------9h10h11------------------|
-----------------------------------------------------------------------------------------|
-----------------------------------------------------------------------------------------|
-----------------------------------------------------------------------------------------|

----------------------------------7-7/8-7------|
------7-8-10--8-7----------7-8-10---------10-8-|
--7-9-------------9----7-9---------------------|
-----------------------------------------------|
-----------------------------------------------|
-----------------------------------------------|

---------------------------------------------------------10----------------||
--8-7---7-10------7-10---------7--8-7---7-10------7-10------10--8-7-8------||
------9------9--7---------9--7--------9------9--7---------------------9-7-*||
--------------------------------------------------------------------------*||
---------------------------------------------------------------------------||
---------------------------------------------------------------------------||
        
Comments

@Jaco (December 04, 2011 at 11:09 PM)

Nice Job, sounds perfect!


@The Mighty Doove (July 25, 2016 at 3:54 PM)

I can hardly stop myself from playing this have been playing this for months now amazing tune perfect tab!