Gametabs
Home
Tabs
Random

Oshus's Theme (The Ocean King)

Average rating: 4.333

3 ratings

Composer:

Tabber:

Style:

Instrument:

Created: October 24, 2009 at 12:00 AM

            Oshus's Theme
The Legend of Zelda: Phantom Hourglass
Koji Kondo
Arranged by Pim and Daan van den Berg

Guitar 1

     H        Q       H        Q       H.              H        Q     
E||----------------|----------------|---------------|----------------|
B||--0--------3----|--2-------------|--0------------|--L-------------|
G||--0-------------|-----------2----|---------------|----------------|
D||--0-------------|--4-------------|---------------|----------------|
A||----------------|----------------|---------------|----------------|
D||----------------|----------------|---------------|----------------|


    H.              H.              H.              H.            
|----------------|---------------|---------------|---------------|
|----------------|---------------|---------------|---------------|
|*---------------|---------------|---------------|---------------|
|*---------------|---------------|---------------|---------------|
|----------------|---------------|---------------|---------------|
|----------------|---------------|---------------|---------------|


  H        Q       Q.     E  Q       H.              H        Q     
----------------|------------0----|---------------|----------------|
--3--------3----|--1------3-------|--3------------|--L-------------|
----------------|-----------------|---------------|-----------0----|
----------------|-----------------|---------------|----------------|
----------------|-----------------|---------------|----------------|
----------------|-----------------|---------------|----------------|


  H        Q       Q.     E   Q       H.              H        Q     
----------------|------------------|---------------|----------------|
--3--------3----|--1------3s--5----|--3------------|--L--------3----|
----------------|------------------|---------------|----------------|
----------------|------------------|---------------|----------------|
----------------|------------------|---------------|----------------|
----------------|------------------|---------------|----------------|


    H        Q       H        Q       H.              H        Q     
------------------|--3--------1----|---------------|----------------|
--3g4--------4----|----------------|--3------------|--L-------------|
------------------|----------------|---------------|-----------3----|
------------------|----------------|---------------|----------------|
------------------|----------------|---------------|----------------|
------------------|----------------|---------------|----------------|


  Q.     E  Q       H        Q       H.              H        Q     
-----------------|----------------|---------------|----------------|
--1--------------|----------------|---------------|----------------|
---------3--2----|--0--------2----|---------------|-----------0----|
-----------------|----------------|--0------------|--L-------------|
-----------------|----------------|---------------|----------------|
-----------------|----------------|---------------|----------------|


  H        Q       Q.     E  Q       H        Q       H        Q     
----------------|------------0----|----------------|----------------|
--3--------3----|---------3-------|--3-------------|--L-------------|
----------------|--5--------------|----------------|-----------0----|
----------------|-----------------|----------------|----------------|
----------------|-----------------|----------------|----------------|
--5--------5----|--5--------------|--5--------5----|--5-------------|


  H        Q       Q    Q.     E     H        Q       H        Q     
----------------|--------------0--|----------------|----------------|
--3--------3----|-------3---------|--3-------------|--L--------3----|
----------------|--5--------------|----------------|----------------|
----------------|-----------------|----------------|----------------|
----------------|-----------------|----------------|----------------|
--5--------5----|--5--------------|--5--------5----|--5-------------|


  H        Q       H        Q       H        Q       H        Q     
----------------|--3-------------|----------------|----------------|
--4--------4----|-----------6----|--3-------------|--L-------------|
----------------|----------------|----------------|-----------3----|
----------------|----------------|----------------|----------------|
----------------|----------------|--1--------1----|--1-------------|
--3--------3----|--3-------------|----------------|----------------|


  E  E  Q    Q       H        Q       H        Q       H        Q     
------------------|----------------|----------------|----------------|
--1---------------|----------------|----------------|----------------|
-----3--2---------|--L--------0----|--3--------2----|--0-------------|
------------------|----------------|----------------|-----------4----|
------------------|----------------|----------------|----------------|
--1----------1----|--1-------------|--2--------2----|--1-------------|


  ^                                ^                              
  H        Q       H.              H        Q       H.            
----------------|---------------|----------------|---------------|
----------------|---------------|----------------|---------------|
--0--------0----|--0------------|--0--------0----|--0------------|
--0--------0----|--0------------|--0--------0----|--0------------|
----------------|---------------|----------------|---------------|
--5--------5----|--5------------|--5--------5----|--5------------|


  ^                                ^                              
  H        Q       H.              H        Q       H.            
----------------|---------------|----------------|---------------|
----------------|---------------|----------------|---------------|
--0--------0----|--0------------|--0--------0----|--0------------|
--0--------0----|--0------------|--0--------0----|--0------------|
----------------|---------------|----------------|---------------|
--5--------5----|--5------------|--5--------5----|--5------------|


  ^                                ^                              
  H        Q       H.              H        Q       H.            
----------------|---------------|----------------|---------------|
----------------|---------------|----------------|---------------|
--0--------0----|--0------------|--0--------0----|--0------------|
--0--------0----|--0------------|--0--------0----|--0------------|
----------------|---------------|----------------|---------------|
--5--------5----|--5------------|--5--------5----|--5------------|


  ^                                ^                                
  H        Q       H.              H        Q       H.              
----------------|---------------|----------------|----------------||
----------------|---------------|----------------|----------------||
--0--------0----|--0------------|--0--------0----|--0------------*||
--0--------0----|--0------------|--0--------0----|--0------------*||
----------------|---------------|----------------|----------------||
--5--------5----|--5------------|--5--------5----|--5-------------||


  ^                              
  H.              H.             
---------------|---------------||
---------------|---------------||
--4------------|--L------------||
--5------------|--L------------||
---------------|---------------||
--5------------|--L------------||


Guitar 2


                                                                NH             
     H.              H.               E  E  E   E  E   E        H        Q     
E||---------------|---------------|---------0-------------|--<>12-------------|
B||---------------|---------------|------0---------9--12--|-------------------|
G||---------------|---------------|------------11---------|-------------------|
D||---------------|---------------|-----------------------|-------------------|
A||---------------|---------------|--12-------------------|-------------------|
E||---------------|---------------|-----------------------|-------------------|


     ^                ^                ^                ^             
     H.               H.               H.               H.            
|---10------------|--10------------|--10------------|--10------------|
|---11------------|--11------------|--10------------|--10------------|
|*--12------------|--12------------|--12------------|--12------------|
|*----------------|----------------|----------------|----------------|
|-----------------|----------------|----------------|----------------|
|-----------------|----------------|----------------|----------------|


   ^                ^                ^                ^             
   H.               H.               H.               H.            
----------------|--10------------|----------------|----------------|
--10------------|--10------------|--10------------|--10------------|
--12------------|--12------------|--12------------|--12------------|
----------------|----------------|----------------|----------------|
----------------|----------------|----------------|----------------|
----------------|----------------|----------------|----------------|


   ^                ^                ^                ^             
   H.               H.               H.               H.            
----------------|----------------|----------------|----------------|
--10------------|--10------------|--10------------|--10------------|
--12------------|--12------------|--12------------|--12------------|
----------------|----------------|----------------|----------------|
----------------|----------------|----------------|----------------|
----------------|----------------|----------------|----------------|


   ^                ^                ^                ^             
   H.               H.               H.               H.            
----------------|--10------------|----------------|----------------|
--11------------|--11------------|--10------------|--10------------|
--12------------|--12------------|--12------------|--12------------|
----------------|----------------|----------------|----------------|
----------------|----------------|----------------|----------------|
----------------|----------------|----------------|----------------|


   ^                ^                ^                ^             
   H.               H.               H.               H.            
----------------|----------------|----------------|----------------|
--10------------|---8------------|--10------------|--10------------|
--12------------|--10------------|--12------------|--12------------|
----------------|----------------|----------------|----------------|
----------------|----------------|----------------|----------------|
----------------|----------------|----------------|----------------|


   ^                ^                ^                ^             
   H.               H.               H.               H.            
----------------|--10------------|----------------|----------------|
--10------------|--10------------|--10------------|--10------------|
--12------------|--12------------|--12------------|--12------------|
----------------|----------------|----------------|----------------|
----------------|----------------|----------------|----------------|
----------------|----------------|----------------|----------------|


   ^                ^                ^                ^             
   H.               H.               H.               H.            
----------------|--10------------|----------------|----------------|
--10------------|--10------------|--10------------|--10------------|
--12------------|--12------------|--12------------|--12------------|
----------------|----------------|----------------|----------------|
----------------|----------------|----------------|----------------|
----------------|----------------|----------------|----------------|


   ^                ^                ^                ^             
   H.               H.               H.               H.            
----------------|--10------------|----------------|----------------|
--11------------|--11------------|--10------------|--10------------|
--12------------|--12------------|--12------------|--12------------|
----------------|----------------|----------------|----------------|
----------------|----------------|----------------|----------------|
----------------|----------------|----------------|----------------|


   ^                ^                ^                ^             
   H.               H.               H.               H.            
----------------|----------------|----------------|----------------|
---8------------|--10------------|--11------------|--10------------|
--10------------|--12------------|--12------------|--12------------|
----------------|----------------|----------------|----------------|
----------------|----------------|----------------|----------------|
----------------|----------------|----------------|----------------|


  Q.     T T S Q       H        Q       H.              H.            
--3------L-4-3-1----|--3-------------|---------------|---------------|
--------------------|----------------|--1------------|---------------|
--------------------|-----------0----|---------------|--2------------|
--------------------|----------------|---------------|---------------|
--------------------|----------------|---------------|---------------|
--------------------|----------------|---------------|---------------|


  Q.     T T S Q       H         Q        H.               H.            
--3------L-4-3-1----|--3--------15----|--15------------|--14------------|
--------------------|-----------------|----------------|----------------|
--------------------|-----------------|----------------|----------------|
--------------------|-----------------|----------------|----------------|
--------------------|-----------------|----------------|----------------|
--------------------|-----------------|----------------|----------------|


  Q.     T T S Q       H        Q       H.              H.            
--3------L-4-3-1----|--3-------------|---------------|---------------|
--------------------|----------------|--1------------|---------------|
--------------------|-----------0----|---------------|--2------------|
--------------------|----------------|---------------|---------------|
--------------------|----------------|---------------|---------------|
--------------------|----------------|---------------|---------------|


  H.              H.              H.              H.              
--3------------|---------------|---------------|----------------||
---------------|--1------------|--1------------|--1-------------||
---------------|---------------|---------------|---------------*||
---------------|---------------|---------------|---------------*||
---------------|---------------|---------------|----------------||
---------------|---------------|---------------|----------------||


    NH                             
    H.                             
-----------------|---------------||
-----------------|---------------||
-----------------|---------------||
-----------------|---------------||
-----------------|---------------||
--<>7------------|---------------||




Duration Legend
---------------
W - whole
H - half
Q - quarter
E - 8th
S - 16th
T - 32nd
X - 64th
. - note dotted
|-n-|  - n-tuplets


Tablature Legend
----------------
L - tied note
g - grace note
NH - natural harmonic
^ - brush up
        
Comments

@stormlink26 (January 17, 2012 at 6:23 PM)

very good but complicated