Gametabs
Home
Tabs
Random

Zora's Domain

Average rating: 4.800

5 ratings

Composer:

Tabber:

Style:

Instrument:

Created: April 11, 2016 at 12:00 AM

            Zora's Domain
The Legend of Zelda: Ocarina of Time
Composed by Koji Kondo
Tabbed by "Nope"
4/8/2016


There are some good tabs for this song on the site, but a number of them appear to either be
incomplete, or for a more complex musical arrangement. This tab is only for the main melody of
the song. There is plenty of room to put your own touches on a song like this, but for the sake
of learning and completionism, I've transcribed a note-for-note rendition, which I hope you'll
find 100% full and accurate! Tab was made with the help of http://www.guitartabcreator.com/

0:00

E|--7-------------------------5-----------------------3-------------------------3--2-
B|-----8-----8-------------------6-----6-----------------4-----4---------------------
G|--------7-----7-------------------5-----5-----------------3-----3------------------
D|-----------------9-------------------------7-----------------------5---------------
A|--------------------10------------------------8-----------------------6------------
E|------------------------10-----------------------8-----------------------6---------

0:11

E|-----------------------------------------------------------------
B|--------10--7-----------------------10--7------------------8-----
G|-----7---------7--------7-----7------------7------------9-----9--
D|--9---------------9--------9-----9------------9-----10-----------
A|-----------------------------------------------------------------
E|-----------------------------------------------------------------

0:19

E|-----------------------------------------------------
B|--------------------------------------7--8--7-----7--
G|-------------------7--9---------7--9-----------9-----
D|--7--9--10--9--10-----------10-----------------------
A|-----------------------------------------------------
E|-----------------------------------------------------

0:24

E|------------------------7------------7-----------
B|--------10--7--------------7--8--10-----7--------
G|-----7------------7------------------------7--9--
D|--9------------9---------------------------------
A|-------------------------------------------------
E|-------------------------------------------------

0:32

E|--12---------------------------------
B|---------12--------------12----------
G|-------------14--12--14------11------
D|---------------------------------12--
A|-------------------------------------
E|-------------------------------------

0:34

E|--------------------------------------------------------------
B|-----------7--------------7-----------7-----------7--------7--
G|--------7--------------7-----------7-----------7--------7-----
D|--7--9-----------7--9--------7--9--------7--9--------9--------
A|--------------------------------------------------------------
E|--------------------------------------------------------------

0:40

E|----------------------10--7-------------------------------------
B|---------------12------------8-----8---------7-----7--5h7p5-----
G|------------9-------------------9-----9---------9------------7--
D|--9--10----------------------------------10---------------------
A|----------------------------------------------------------------
E|----------------------------------------------------------------

0:50

E|---------------------------------------7--------
B|--------7--10-----7-----------------------7-----
G|-----7---------------7--------------9--------9--
D|--9---------------------7--------9--------------
A|------------------------------------------------
E|------------------------------------------------

0:55

E|--7--------------------------------
B|-----8-----7-----------------------
G|--------9-----7--------------7-----
D|-----------------7-----7--9-----9--
A|-----------------------------------
E|-----------------------------------

0:58 

E|--5--------2--5--------5--------2--5-----4--------0--4-----0--------0--4--
B|--------3--------------------3-----------------2-----------------2--------
G|-----4--------------4-----4-----------------3-----------------3-----------
D|--------------------------------------------------------------------------
A|--------------------------------------------------------------------------
E|--------------------------------------------------------------------------

1:04

E|--0--3-----------0--3-----------0-----0--3-----2-----------2--------2--------------2--
B|--------------1--------------------1-----------------0--1--------1--------0--1--3-----
G|-----------2--------------2-----------------------2--------------------2--------------
D|--------------------------------------------------------------------------------------
A|--------------------------------------------------------------------------------------
E|--------------------------------------------------------------------------------------
        
Comments

No comments yet