Gametabs
Home
Tabs
Random

Zora's Domain

Average rating: 4.941

17 ratings

Composer:

Tabber:

Style:

Instrument:

Created: July 05, 2013 at 12:00 AM

            Zora's Domain                                          
The Legend of Zelda: Ocarina of Time
Koji Kondo
JordanVS

*Capo on the 5th fret
*Drop D Tuning



     ^                       ^                       ^                          
     S S S S S S S Q    S    S S S S S S S Q    S    S S S S S S S S Q    Q     
E||--2--------------------|--0--------------------|----------------------------|
B||--3-3---3--------------|--1-1---1--------------|--3--------------------3----|
G||--2---2---2------------|--0---0---0------------|--3-3---3--------------3----|
D||--4---------4----------|--2---------2----------|--3---3---3-0---------------|
A||--5-----------5-0----L-|--3-----------3--------|--1-----------1-------------|
D||-----------------------|----------------5----L-|----------------3-L---------|

                                 *Segno
  ^                                                                                       
  S  S  S  S  S  S  E  H           Q    S S S E.  E.  E.     E  S S S S S S S S E  S E.   
--------------------------------|-----------0-------------|-------------0----------------|
--2h-3p-2h-3p-2h-3p-2--L--------|-------------2-----------|---------------2--------------|
--2--------------------L--------|---------2-------2-------|-----2---2-----------2--------|
--2--------------------L--------|-------4-------------4---|--L----4---4-------4------4---|
--0--------------------L--------|-----------0---------0---|-----0-------0----------0-----|
--------------------------------|--0--------------0-------|--0--------------0------------|


  E  S S S E  S E  E  Q    S    S S S S S S  S S S S  S S  S S S  S  
-----------------------------|--------------------------------------|
---------0-3--0------------L-|--L--------------0--------0h-2-3-2p-0-|
-------0--------------0------|--------0---0h-2-----0h-2-------------|
----------------4------------|----2-4---4---------------------------|
-----2-----2-------2---------|-------------------0---------0--------|
--2--------------------------|--2-----------------------------------|


  E  Q    E  E  S S S E  S    E  Q    E  E  S S S S S S    E  S E.  E  E  E  Q     
--------------------0------|-------------2------------2-|-------------------------|
--2----------L--------2----|------------------2---3-5---|--2--------0--L----------|
--2----------L----2--------|--2-------------------------|--2----2---0--L-----0----|
-------------2--4--------4-|--------------------2-------|--------------4----------|
-----0----0-----0----------|-----0----0-----0-----------|-----2-----2-----2-------|
--0-----------------0------|--0----------0--------------|--0----------------------|


                     |---3--|                                                                 
  Q    Q    S S  S S E   E  E     E  Q    E  E  S S S E  S    S S S S S S S S S S S S S E  S  
-------7----L-2p-0---0h--2-----|---------------------------|---------------------------------|
-------------------3--------3--|----------------------2----|------2-------2-------2-----2----|
-------------------------------|--2----------L------2------|----2-------2-------2-----2------|
-------------------------------|----------------2-4------2-|--4-----2-4-----2-4-----2------4-|
------------0------------------|-----0----0----------------|----------0---------------0------|
--2----------------------------|--0----------0--2----------|--0---------------0--------------|


                                             |--3--|  |--3--|  |--3--|   
  E  S H.           E  E  E  Q    S    E  E  E  E  E  E  E  E  E  E  E   
-------2--------------------------L-|--L--5--2--------------------------|
-----0------------------------------|-----------3--0--3--0-----2--0--2--|
--0--------------------------0------|-----------------------0-----------|
-----------------------4------------|-----------------------------------|
-----2--------------2-----2---------|--------0-----------------0--------|
--2---------------------------------|--2--------------2-----------------|
                                                              
                                                              *Da Coda

  |--3--|                                                        |--3--|                     
  S  S  S E  E  E  E  E  Q       E  S S S Q    S S S Q    S S    E  E  E  E  S  S Q    Q     
------------------------------|-----------0-------------------|-----------2-----------------|
--0h-2p-0---------------------|---------2--------2------------|--------0-----2p-0-L---------|
----------2--L----------------|--L----2------------2----------|-----0------------------0----|
-------------------2-----4----|-----4----------------2------L-|-----------------------------|
----------0-----0-----0-------|---------0-----------------0---|-----------2-------2---------|
--0---------------------------|--0-------------0--------------|--2--------------------------|


  ^                               ^                            ^                            
  S S S  S S S E.  S  S S Q       E  S E  E  S S S S E  E.     E  S S S E  S S S S S E.  S  
----2--------------------------|--0-------0----0--------0---|------------------------------|
------3p-0-2-------------------|--2------------------2------|--4------0-4--0-------0-4---0-|
-------------2----------2------|--2----2-----------2--------|--1----1------------1---------|
--0------------2---2s-4---4----|-----4-------4---4----------|--3--3------------3-----------|
--0----------------------------|----------------------------|------------------------------|
--0----------------------------|--4------------4------------|--3-------------3-------------|


  ^                                                             ^                          
  E  S S S E  S E  S S S E.     S S S S S E  S S S S S S E.     E  S E  E  S S S S E  E.   
-----------------------------|-------------------------------|--0-------0----0--------0---|
--3------0-3-------0---0-3---|--L-2-------2----2---------2---|--2------------------2------|
--0----0-------------0-------|----0-----0----0-------0-2-----|--2----2-----------2--------|
--2--2--------2--------------|------2-4----------2-4---------|-----4-------4---4----------|
-----------------------------|--0--------------0-------------|----------------------------|
--2-------------2------------|-------------------------------|--4------------4------------|

                                                                                *D.S. al Coda
  ^                              ^                                                           
  E  S S S E  S S S S S E.  S    E  S S S E  S E  S S S E.     S S S S S E  S S S S S S E.   
------------------------------|-----------------------------|-------------------------------|
--4------0-4--0-------0-4---0-|--3------0-3-------0---0-3---|--L-2-------2----2---------2---|
--1----1------------1---------|--0----0-------------0-------|----0-----0----0-------0-2-----|
--3--3------------3-----------|--2--2--------2--------------|------2-4----------2-4---------|
------------------------------|-----------------------------|--0--------------0-------------|
--3-------------3-------------|--2-------------2------------|-------------------------------|

*Coda    
                              ^                                      
  S S  S S  S S E.  S. S. Q       W                   W                  
----3p-0-----------------------|--2----------------|--L----------------||
---------0h-2------------------|--2----------------|--L----------------||
--------------2-----------2----|--2----------------|--L----------------||
----------------2---2s-4-------|--4----------------|--L----------------||
-------------------------------|--0----------------|--L----------------||
--0----------------------------|--0----------------|--L----------------||




Duration Legend
---------------
W - whole
H - half
Q - quarter
E - 8th
S - 16th
. - note dotted
|-n-|  - n-tuplets


Tablature Legend
----------------
L - tied note
h - hammer on
p - pull off
b - bend
S - shift slide
s - legato slide
^ - brush up
v - brush down
        
Comments

@Colin_spade (July 05, 2013 at 8:02 PM)

very nice! :D


@Choogly (July 06, 2013 at 2:03 AM)

This is the best arrangement I've seen so far. Good to see another tab from ya!


@musenji (July 06, 2013 at 1:50 PM)

Measure 7 adds up to more than a measure, by one 16th note.

Loving the tab otherwise so far, and carrying on reading it.


@auriplane (July 06, 2013 at 2:59 PM)

Sometimes you have something like:

7 sixteenth notes, 1 quarter note, 1 sixteenth note (tied)

That would be so much better written as:

8 sixteenth notes, 1 quarter note (tied)

That is, if you want anyone to be able to sight read the rhythm...

This part is unreadable, too:

``` E S H. E E E Q S ```

etc... but it's okay if you go by listening to the MIDI file, presumably.


@musenji (July 06, 2013 at 3:09 PM)

Don't get me wrong, Jordan, 5-star tab, and I want to record this.


@JordanVS (July 06, 2013 at 4:58 PM)

I didn't pay much atention to that,in the PDF file you can even see both ways written XD Also,the text file looks really messed up everywhere because of the guitar pro to text conversion but it's no big deal if you follow the MIDI file :)

Oh,and I can't wait to see your recording,Musenji ;D


@TheTabFly43 (January 10, 2021 at 10:49 PM)

YEEEEES, i wait one long year for this moment.


@sjo89 (February 18, 2021 at 3:43 PM)

Absolutely superb, one of my favourite tabs on this site! Nice job