Gametabs
Home
Tabs
Random

Zelda's Lullaby

Average rating: 4.800

5 ratings

Composer:

Tabber:

Style:

Created: October 19, 2010 at 12:00 AM

            e|------------------------5--3-------------------------------------5--3--10-|
B|----3----------3------3------3---------------3----------3------3----------|
G|--4---2--0-2-4---2--4----------5--4--2-----4---2--0-2-4---2--4------------|
D|--------------------------------------------------------------------------|
A|--------------------------------------------------------------------------|
E|--------------------------------------------------------------------------|


e|--10--8-7-8-7--------8--7-5-7-5------10--8-7-8-7---8-15-------------------|
B|--------------8-----------------5----------------8------------------------|
G|--------------------------------------------------------------------------|
D|--------------------------------------------------------------------------|
A|--------------------------------------------------------------------------|
E|--------------------------------------------------------------------------|
        
Comments

@Primgull (September 13, 2013 at 5:15 PM)

Love it!!!!!!


@bs (January 05, 2015 at 3:39 AM)

got my guitar last week and this is a nice song to play on it.