Gametabs
Home
Tabs
Random

Zelda's Lullaby

Average rating: 5.000

19 ratings

Composer:

Tabber:

Style:

Created: September 30, 2007 at 12:00 AM

            Zelda's Lullaby
The Legend of Zelda: Ocarina of Time
Composed by Koji Kondo

Guitar
     E  E  Q    Q       E  E  Q    E  E     E  E  Q    Q       E  E  H
E||------------------|-------------------|------------------|-----------------|
B||--0----------3----|-------------------|--0----------3----|-----------------|
G||------------------|--2----------0--2--|------------------|--2--------------|
D||--------2---------|--------4----------|--------2---------|--------4--------|
A||--3---------------|--3----------------|--3---------------|--3--------------|
E||-----3------------|-----3-------------|-----3------------|-----3-----------|

  E  E  Q    Q       E  E  Q    Q       E  E  Q    E  E     E  E  E  E  Q
------------------|--5---------------|-------------------|--------2----------|
--0----------3----|-------------8----|--3----------------|-----1-------------|
--------2---------|--------0---------|-------------5--4--|--2----------------|
-----0------------|------------------|--------5----------|--0----------------|
--2---------------|-----4------------|-----3-------------|-------------------|
------------------|--6---------------|--5----------------|-------------------|

  E  E  Q    Q       E  E  Q    E  E     E  E  Q    Q       E  E  H
------------------|-------------------|------------------|-----------------|
--0----------3----|-------------------|--0----------3----|-----------------|
------------------|--2----------0--2--|------------------|--2--------------|
--------2---------|--------4----------|--------2---------|--------4--------|
--3---------------|--3----------------|--3---------------|--3--------------|
-----3------------|-----3-------------|-----3------------|-----3-----------|

  E  E  Q    Q       E  E  Q    Q        E  E  H           E  E  H
------------------|--5---------------|--10--------------|-----------------|
--0----------3----|-------------8----|------------------|--------7--------|
--------2---------|--------0---------|---------0--------|-----5-----------|
-----0------------|------------------|------------------|--0--------------|
--2---------------|-----4------------|---0--------------|-----------------|
------------------|--6---------------|------8-----------|-----------------|

   E   E  E   E  E   E     E  E  Q    E   E     E  E  E  E  E  E
--10-------------8------|--8--7--------------|--8-----------7--5--|
-------------10-----12--|--------8-----------|-----------6--------|
----------9------9------|--------7-----------|--------5-----5-----|
------10------------10--|-----9-------9------|-----7-----------7--|
---8--------------------|--7-------------10--|--5-----------------|
------------------------|--------------------|--------------------|

  E  E  Q    E  E      E   E  E   E  E   E     E  E  Q    E   E
--7--5--0----------|--10-------------8------|--8--7-------8------|
--------0----------|-------------10-----12--|--------8-----------|
-------------0-----|----------9------9------|--------7-----------|
-----5-------------|------10------------10--|-----9-------9------|
--3-------------7--|---8--------------------|--7-------------10--|
-------------------|------------------------|--------------------|

                             |---3---|   |---3--|
   E   E   E   E   E   E     E   E   E   E   E  E   S  S  S  S
--15----------------------|---------------------8-----------15--||
--------------------------|-----------------10-----------12-----||
--------------12----------|-------------10---------------------*||
----------11------11------|--0------10----------------12-------*||
------13--------------13--|-----12-----------------10-----------||
--11----------------------|--------------8----------------------||

Duration Legend
---------------
W - whole
H - half
Q - quarter
E - 8th
S - 16th
T - 32nd
X - 64th
. - note dotted
|-n-|  - n-tuplets

        
Comments

@kizami (September 14, 2007 at 11:51 PM)

Awesome!!!


@nick bruno (September 28, 2007 at 1:10 AM)

uhh do you have regular chords? kind of confusing, very awesome when played.


@Anonymous (October 26, 2007 at 4:52 PM)

nice tab man i c e

t a b

m a n


@Anonymous (November 06, 2007 at 10:40 PM)

i love this tabs this is just beatiful have been guitar for around 11 months its not so hard as i thought it would be. thanks for the tab.


@Anonymous (January 09, 2008 at 9:19 PM)

shit thats hard


@Magus (April 22, 2008 at 11:36 PM)

weird... the last part is fuckin hard, could you do that part a little easier for us the noobs please?


@BohmaN (June 09, 2008 at 11:26 PM)

Thanks for this mate keep up the good work!


@yoshistrings (June 27, 2008 at 1:44 PM)

this is perfect. I've been looking for a nice, easy acoustic tab to play.


@ArchTheDark (August 12, 2008 at 5:33 PM)

its good but too diffecult for me xD


@yoshistrings (August 14, 2008 at 3:49 PM)

there's a few big stretches, but it's not bad after even a little practice.