Gametabs
Home
Tabs
Random

Zelda's Lullaby

Average rating: 4.667

3 ratings

Composer:

Tabber:

Style:

Created: February 26, 2010 at 12:00 AM

                                            Zelda's Lullaby                                 

Music by Koji Kondo >> arranged by BLUESCD >> tab by Diralark

Guitar
      ^                                        ^                
      E  E  Q    Q       E   E   Q    E  E     E  E  Q    Q     
E||-------------------|---------------------|------------------|
B||---0----------3----|---------------------|--0----------3----|
G||*-----0------------|--2--(2)-------0--2--|-----0------------|
D||*--------2---------|----------4----------|--------2---------|
A||---3---------------|--3------------------|--3---------------|
E||-------------------|---------------------|------------------|


                                         V  -- --   --|                       
                                         ^                  ^                 
  E   E   H           E  E  Q    Q       E  E  Q    Q       E  E  Q    E  E   
-------------------|------------------|--5---------------|-------------------|
-------------------|--0--3-------3----|-------------8----|--3-------------0--|
--2--(2)-----------|--------2---------|-----6------------|-----5-------5-----|
----------4--------|------------------|--------5---------|--------5----------|
--3----------------|--2---------------|------------------|--0----------------|
-------------------|------------------|--6---------------|-------------------|


                    ^                                        ^                
  E  E  H           E  E  Q    Q       E   E   Q    E  E     E  E  Q    Q     
-----------------|------------------|---------------------|------------------|
-----1-----------|--0----------3----|---------------------|--0----------3----|
--2--------------|-----0------------|--2--(2)-------0--2--|-----0------------|
--0-----4--------|--------2---------|----------4----------|--------2---------|
-----------------|--3---------------|--3------------------|--3---------------|
-----------------|------------------|---------------------|------------------|


                                         ^                   ^                
  E   E   H           E  E  Q    Q       E  E  Q    Q        E   E  H         
-------------------|------------------|--5---------------|--10---------------|
-------------------|--0--3-------3----|-------------8----|-------------------|
--2--(2)-----------|--------2---------|-----6------------|----------0--------|
----------4--------|------------------|--------5---------|------10-----------|
--3----------------|--2---------------|------------------|---0---------------|
-------------------|------------------|--6---------------|-------------------|


  E  E  H           E  E  E  E  E  E     E  E  E  E  E  E   
-----------------|--------------------|--------------------|
-----1-----------|--3-----------1--0--|--1--0--------------|
-----------------|-----------2--------|-----------0--------|
--0-----4--------|--------2-----2-----|--------0-----0-----|
-----------------|-----3--------------|-----------------2--|
-----------------|--1-----------------|--0-----3-----------|


  E  E  E  E  E  E     E  E  E  E  E  E     E  E  E  E  E  E   
--------------------|--------------------|--------------------|
--1-----------0-----|--0-----------------|--3-----------1--0--|
-----------------2--|-----2--------------|-----------2--------|
-----------3--------|-----------2--------|--------2-----2-----|
--3--0--3-----3-----|--------2-----2-----|-----3--------------|
--------1-----------|--0--------------3--|--1-----------------|


  E  E  E  E  E  E     E  E  E  E  E  E     S. S S. S. S S. S S S S E  E     
--------------------|--3-----------------|------------------------3-L------||
--1--0--------1-----|--------------------|---------------1------0----------||
-----------0--------|-----------0--------|-------------2------------------*||
--------0-----0-----|--------------------|----------3---------0-----------*||
-----------------2--|-----1--4-----4--1--|-----0-3------------2------------||
--0-----3-----------|--------3-----------|------------------3--------------||




Duration Legend
---------------
W - whole
H - half
Q - quarter
E - 8th
S - 16th
T - 32nd
X - 64th
. - note dotted
|-n-|  - n-tuplets


Tablature Legend
----------------
L - tied note
x - dead note
g - grace note
(n) - ghost note
> - accentuded note
NH - natural harmonic
AH - artificial harmonic
TH - tapped harmonic
SH - semi harmonic
PH - pitch harmonic
h - hammer on
p - pull off
b - bend
br - bendRelease
pb - preBend
pbr - preBendRelease
brb - bendReleaseBend
\n/ - tremolo bar dip
\n - tremolo bar dive
-/n - tremolo bar Release up
/n\ - tremolo bar inverted dip
/n - tremolo bar return
-\n - tremolo bar Release down
S - shift slide
s - legato slide
/ -  slide into from below or out of upwards
\ -  slide into from above or out of downwards
~ - vibrato
W - wide vibrato
tr - trill
TP - tremolo picking
T - tapping
S - slap
P - pop
< - fade in
^ - brush up
v - brush down

        
Comments

No comments yet