Gametabs
Home
Tabs
Random

Zelda's Lullaby

Average rating: 4.000

3 ratings

Composer:

Tabber:

Style:

Instrument:

Created: July 18, 2011 at 12:00 AM

            Zelda's Lullaby
Legend of Zelda
Composer: Koji Kondo
Arranged by: victormon

CSGuitar89's version of Zelda's Lullaby. It was originally a duet but I changed
a few things to make it possible to play as a solo.
The numbers between [] are the melody, or lead part, and should be
accented - just a little louder than the harmony.


Tempo - 110
3/4

* The 'harmony' 2's can be left out as they will cancel the 'melody' [2]'s

       H          Q        H   *       E     E       H          Q
e||----------0--------|-----------2--------------|---------0---------|
b||o--[0]--------[3]--|--------------------------|--[0]--------[3]---|
g||-------0-----------|---[2]--2------[0]---[2]--|------0------------|
d||-------------------|--------------------------|-------------------|
a||o---3--------------|----3---------------------|---3---------------|
e||-------------------|--------------------------|-------------------|


     H.  *         H          Q       H          Q
e|----------2--|------------------|--[5]--------[3]--|
b|-------------|--[0]--------[3]--|------------------|
g|--[2]--2-----|---------2--------|---------0--------|
d|-------------|------0-----------|------0-----------|
a|---3---------|---2--------------|---1--------------|
e|-------------|------------------|------------------|

  ________________________________________
 |1. H.         E     E       H.
e|------------------------|---------------|
b|--[3]-------------------|---------------|
g|-------------[5]---[4]--|--[2]----------|
d|---------5--------------|---------4-----|
a|------3-----------------|------3--------|
e|---5--------------------|---5-----------|

  ___________________________________
 |2. H.                 H. (Tied)
e|--[10]------------|--(10)----------|
b|------------------|----------------|
g|------------------|----------------|
d|------------------|----------------|
a|----0-------10----|----0-------9---|
e|--------8---------|--------8-------|


     H            E    E       E    E    H
e|--[10]---------[8]--[7]--|--[8]--[7]-----------------|
b|-------------------------|------------[8]------------|
g|-----------9-------------|-------------7-----7-------|
d|-------10----------------|-----------------------9---|
a|----8--------------------|---7-----------------------|
e|-------------------------|---------------------------|


     H            E     E       E     E    H
e|--[8]----------[7]--------|--[7]--[10]----------|
b|--------------------[10]--|-------------[8]-----|
g|----------5---------------|---------------------|
d|-------7------------------|---------------------|
a|----5---------------------|---------------------|
e|--------------------------|---8-----------------|


      H           E    E       E    E    Q     Q
e|--[10]---------[8]--[7]--|--[8]--[7]--------[8]---|
b|-------------------------|------------[8]---------|
g|-----------9-------------|-------------7----------|
d|-------10----------------|------------------------|
a|----8--------------------|---7--------------------|
e|-------------------------|------------------------|


     H.
e|--[15]--------------------|----------5-8--------3--|
b|--------------------------|--------6---------------|
g|---------------12---------|------5-----------------|
d|-----------11-----11------|----7--------------5----|
a|-------13------------13---|--5--------------5------|
e|---11---------------------|---------------3--------|


        
Comments

@Nicktendo (July 19, 2011 at 9:33 AM)

It's good, sounds lovely. The [3] on the first ending needs to move from the g string to the b string though.


@victormon (September 13, 2011 at 7:15 AM)

oooh Yes, thank you I'll fix immediately


@Andarnio (December 02, 2012 at 5:49 PM)

best zelda's lullaby tab yet!