Gametabs
Home
Tabs
Random

Windmill Hut

Average rating: 4.500

2 ratings

Composer:

Tabber:

Style:

Instrument:

Created: March 08, 2010 at 12:00 AM

            Legend of Zelda: Ocarina of Time
Windmill Hut (song of storms)
Composed by Koji Kondo
tabbed by musenji, 3-8-10


This is the accompaniment.  A bit barreish.

Standard tuning.  Drop D works too.  ;-)



-----5---5-------7------|-----8---8-------7------| (2x)
-----6---6-------8------|----10--10-------8------|
-----7---7-----9--------|----10--10-----9--------|
------------------------|------------------------|
-5-----------7----------|-8-----------7----------|
------------------------|------------------------|

-----5---5-------7------|-----8---8-------7------|
-----6---6-------8------|----10--10-------8------|
-----7---7-----9--------|----10--10-----9--------|
------------------------|------------------------|
-5-----------7----------|-8-----------7----------|
------------------------|------------------------|

-----6---6--------------|-----6---6-------5------|
-----6---6--------10----|-----6---6-------5------|
-----7---7--------10----|-----7---7-----6--------|
-8-------------10-------|-8-----------7----------|
-------------8----------|------------------------|
------------------------|------------------------|

-----5---5-------7------|-----8---8-------7------|
-----6---6-------8------|----10--10-------8------|
-----7---7-----9--------|----10--10-----9--------|
------------------------|------------------------|
-5-----------7----------|-8-----------7----------|
------------------------|------------------------|

-----6---6-------5------|
-----6---6-------5------|
-----7---7-----6--------|
-8-----------7----------|
------------------------|
------------------------|

        
Comments

No comments yet