Gametabs
Home
Tabs
Random

Windmill Hut

Average rating: 4.000

4 ratings

Composer:

Tabber:

Style:

Instrument:

Created: September 30, 2007 at 12:00 AM

            Bass

G||---------------|---------------|---------------|---------------|
D||---------------|---------------|---------------|---------------|
A||--5------------|--7------------|--8------------|--7------------|
E||---------------|---------------|---------------|---------------|

---------------|---------------|---------------|---------------|---------------|
---------------|---------------|---------------|---------------|---------------|
--5------------|--7------------|--8------------|--7------------|--5------------|
---------------|---------------|---------------|---------------|---------------|

---------------|---------------|---------------|---------------|---------------|
---------------|---------------|---------------|--8------------|---------------|
--7------------|--8------------|--7------------|---------------|--8------------|
---------------|---------------|---------------|---------------|---------------|

---------------|---------------|---------------|---------------|---------------|
--8------------|--7------------|---------------|---------------|---------------|
---------------|---------------|--5------------|--7------------|--8------------|
---------------|---------------|---------------|---------------|---------------|

---------------|---------------|---------------||
---------------|--8------------|--7------------||
--7------------|---------------|---------------||
---------------|---------------|---------------||

        
Comments

@igiari (August 02, 2009 at 7:14 PM)

you rock


@Desertdweller (January 21, 2010 at 4:19 AM)

I've been trying to figure out the bass for this for awhile, thank you so much...now time for my recording collaboration!


@Legensword (May 07, 2013 at 11:09 PM)

Awesome, but the ending would be better if you add this:

G| |--------------- D| |------0-------- A| |--------------- E| |---------------