Gametabs
Home
Tabs
Random

Windmill Hut

Average rating: 4.333

3 ratings

Composer:

Tabber:

Style:

Instrument:

Created: April 27, 2013 at 12:00 AM

            Windmill Hut
Tabbed by Crabble

---1-1-----0------1-1------0-----------|--------------0-1-0-1-0------|
---3-3-----0------1-1------0-----------|-----3-----3------------1----|
---2-2---0--------2-2----0-------------|--------------------------2--|
-0-----2--------3------2---------------|-0-3---0-3-------------------|
---------------------------------------|-----------------------------|
---------------------------------------|-----------------------------|

---------------------------------------|--------------0-1-0-1-0------|
---------------------------------------|-----3-----3------------1----|
-2-----0-2----2-----0------------------|--------------------------2--|
---0-3----------0-3---2----------------|-0-3---0-3-------------------|
---------------------------------------|-----------------------------|
---------------------------------------|-----------------------------|

---------------------------------------|-----------------------------|
---------------------------------------|-----------------------------|
-2-----0-2----2------------------------|-----------------------------|
---0-3----------0----------------------|-----------------------------|
---------------------------------------|-----------------------------|
---------------------------------------|-----------------------------|
        
Comments

No comments yet