Gametabs
Home
Tabs
Random

Spirit Temple

Average rating: 4.667

3 ratings

Composer:

Tabber:

Style:

Instrument:

Created: August 12, 2010 at 12:00 AM

            Spirit Temple
Ocarina of Time
Composed by Koji Kondo
Tabbed by hslesperance
3/14/09

Standard Tuning


Play 2x
e-------------8----6---------------------------4----6----3----
B-------------8----6---------------------------4----6----3----
G--------0---------------------------1----0-------------------
D---3---------------------------3-----------------------------
A-------------------------------------------------------------
E-------------------------------------------------------------

Just listen to the song and alternate between these two chords
e-------------------------------------------------------------
B-------------------------------------------------------------
G-------------------------------------------------------------
D---0----------------1----------------------------------------
A---0----------------1----------------------------------------
E-------------------------------------------------------------


Melody
e-------------------------------------------------------------
B---prb2rb3--------2h3----7p6------------3h4p3----------------
G-------------------------------------------------------------
D-------------------------------------------------------------
A-------------------------------------------------------------
E-------------------------------------------------------------

e-------------------------------------------------------------
B---2h3b4r--------1-------------------------------------------
G----------------------3--------0-h1p0------0h1p0--3p1h3------
D-------------------------------------------------------------
A-------------------------------------------------------------
E-------------------------------------------------------------

e--------------------------1----------------------------------
B------------------------3----------prb3rb4r--3---2h3---------
G---0h1p0-----------------------------------------------------
D-------------------------------------------------------------
A-------------------------------------------------------------
E-------------------------------------------------------------

e---1--------1-----------3h4p3----6----3----6h8p6----3h4p3----
B------4--3-------3-------------------------------------------
G-------------------------------------------------------------
D-------------------------------------------------------------
A-------------------------------------------------------------
E-------------------------------------------------------------

e---6p3------1---1--1-----------------------------------------
B-----------------------3-------------------------------------
G--------------------------------4p3----5----3------0---------
D-------------------------------------------------------------
A-------------------------------------------------------------
E-------------------------------------------------------------

e-------------------------------------------------------------
B------------------------4p3h4p2------------------------------
G---0h5p3--0h5p3--0h5p3-----------0h5p3--0h5p3--0-------------
D-------------------------------------------------------------
A-------------------------------------------------------------
E-------------------------------------------------------------
1:58
e---3-h4p3----1-3-4p3----7p6--3-----7p4-----7p4-----1h3p1-----
B----------------------------------------8-------8------------
G-------------------------------------------------------------
D-------------------------------------------------------------
A-------------------------------------------------------------
E-------------------------------------------------------------

e---3h4p3-----------------------------------------------------
B--------------------2--h3p2--h3p2--h3p2----------------------
G--------------------------------------------1p0--------------
D-------------------------------------------------------------
A-------------------------------------------------------------
E-------------------------------------------------------------
Play 2x
e-------------------------------------------------------------
B-------------------------------------------------------------
G---3-p0--3-p0--3-p0----3p0-3p0-------------------------------
D-------------------------------------------------------------
A-------------------------------------------------------------
E-------------------------------------------------------------

h - hammer on
p - pull off
b - bend
r - release
prb - pre bend

        
Comments

@navataru (June 27, 2012 at 7:35 PM)

i'm a complete noob at guitar just started this month and i know this isn't what i should be doing but its so temting not to learn as meany zelda songs as POSSIBLE AND I MUST SAY... this is a pretty awesome tab i was very slow with this :P but nonetheless i heard the awesomeness :D

any advice for the newby here?


@omyo96 (December 07, 2012 at 2:30 PM)

i did,'t understand how to do the : p - pull off b - bend r - release prb - pre bend Help please :|


@omyo96 (December 07, 2012 at 4:31 PM)

Thank you very much Hashel :D


@elamoxon (February 01, 2017 at 7:24 AM)

thank you for sharing I will try this.