Gametabs
Home
Tabs
Random

Song of Time

Average rating: 4.524

21 ratings

Composer:

Tabber:

Style:

Instrument:

Created: August 05, 2006 at 12:00 AM

            Song of Time
The Legend of Zelda: Ocarina of Time
Composed by Koji Kondo

8/5/06

e----------------------------------------------------
B----------------------------------------------------
G--2----------2-----------2-5-4--0-----0-2-----------
D------0---3------0---3-------------3------0----2-0--
A---------------------------------------------3------
E----------------------------------------------------

*Corrected on 3/8/07 by Eric Gustafson

        
Comments

@archard (March 08, 2007 at 1:49 AM)

Why does everyone hate this tab so much? lol


@Eric Gustafson (March 09, 2007 at 12:48 AM)

cause its wrong

e-------------------------------------------------
B-------------------------------------------------
G--2----------2-----------2-5-4--0----0-2---------
D------0---3------0---3-------------3-----0----2-0
A--------------------------------------------3----
E-------------------------------------------------

@Eric Gustafson (March 09, 2007 at 12:51 AM)

Hopefully this one appears right

e------------------------
B------------------------
G--2----------2----------
D------0---3------0---3--
A------------------------
E------------------------
e-------------------------
B-------------------------
G-2-5-4--0----0-2---------
D-----------3-----0----2-0
A--------------------3----
E-------------------------

@Eric Gustafson (March 09, 2007 at 12:54 AM)

Screw it I'll email it to you


@archard (March 09, 2007 at 1:50 AM)

Damn you're right, fixing.


@Nightmare (April 14, 2007 at 10:31 AM)

Man, you are great! I love those tabs you wrote! Thanks to them i can learn my favorite tunes, from my favorite game :) Cheers mate!


@Oniichan (April 27, 2007 at 11:20 AM)

hmm its good.. but it would be better if it was played in a higer tone


@Gren (April 27, 2007 at 5:23 PM)

Sounds alot better since it's been fixed, heh


@cameron (May 06, 2007 at 8:20 PM)

isnt it easier like this:

e----------------------------------------------------
B---------------------------1-0----------------------
G--2----------2-----------2------0-----0-2-----------
D------0---3------0---3-------------3------0----2-0--
A---------------------------------------------3------
E----------------------------------------------------

@archard (May 06, 2007 at 8:42 PM)

I fixed it for you Cameron. Remember to use code tags around your tabs so they will format correctly. It says so right below this text box.