Gametabs
Home
Tabs
Random

Song of Storms

Average rating: 5.000

1 ratings

Composer:

Tabber:

Style:

Instrument:

Created: June 02, 2009 at 12:00 AM

            Song of Storms
Legend of Zelda: Ocarina of Time
Composed by Koji Kondo
Tabbed by Rob Van
6/1/09

Thanks to BehindMySarcasm for a couple corrections

E|-------------------0-1-0-1-0----|
A|------5-------5--------------3-0|
D|--0-3-----0-3-------------------|
G|--------------------------------|

E|--------------------------------|
A|--0---------0---0---------------|
D|----0---3-5-------0---3-5-2-----|
G|--------------------------------|

E|-------------------0-1-0-1-0----|
A|------5-------5--------------3-0|
D|--0-3-----0-3-------------------|
G|--------------------------------|

E|--------------------------------|
A|--0---------0-------0-----------|
D|----0---3-5------------0--------|
G|--------------------------------|
        
Comments

No comments yet