Gametabs
Home
Tabs
Random

Song of Storms

Average rating: 4.857

7 ratings

Composer:

Tabber:

Style:

Instrument:

Created: March 02, 2013 at 12:00 AM

            Song Of Storms
From
The Legende Of Zelda Ocarina Of Time


I have seen MANY versions of this song on the Internet...
And many are good, Thay are Indeed...
But this is the way i like to play it
And i thought i might share it With You guys

Hope You Enjoy ^^

Normal E tuning (eBGDAE)[And that will be from down to up... In case you didn't know that]


_____________________________________________________________________________

Bpm (Beats per minute) = 185 (optional)
v ^ These show whether you should Strum up or down. these are optional, but it sounds better in my opinion
/ Slide
- slightly showing how long you shall wait

_____________________________________________________________________________


Rhythm
    v  ^ ^  v v ^   v   ^  ^  v v ^      v  ^ ^  v v ^   v   ^  ^  v v ^  
e|-----5-5------7-------8--8------7---|-----5-5------7-------8--8------7---|
B|-----6-6------8------10-10------8---|-----6-6------8------10-10------8---|
G|-----7-7----9-9------10-10----9-9---|-----7-7----9-9------10-10----9-9---|
D|--0---------------------------------|--0---------------------------------|
A|----------7-------8---------7-------|----------7-------8---------7-------|
E|------------------------------------|------------------------------------|
Keep Going... keep Going...
It's The Rhythm... You Just Keep Doing It Over and over Again...

Melody

e|-----10-------10/--12--13-12-13-12-------|-------------------------------|
B|---6--------6----------------------13----|-10------8-10---10-10------8---|
G|-7--------7---------------------------14-|----7-10--------------7-10---9-|
D|-----------------------------------------|-------------------------------|
A|-----------------------------------------|-------------------------------|
E|-----------------------------------------|-------------------------------|

e|-----10-------10/--12--13-12-13-12-------|---------------------|
B|---6--------6----------------------13----|-10------8-10---10---|
G|-7--------7---------------------------14-|----7-10-----------7-|
D|-----------------------------------------|---------------------|
A|-----------------------------------------|---------------------|
E|-----------------------------------------|---------------------|

And that's About it :)

Please Comment If You Like it :)
        
Comments

@SirLancelot (March 02, 2013 at 5:48 PM)

Nice job I really liked the rythm.


@PeanutReaper486 (March 04, 2013 at 11:20 PM)

Oh wow, totally different style from the other ones that I've seen. Good work c:


@Enzemo (March 29, 2014 at 1:35 PM)

The transition from 14th fret to 10th sounded very off to me, was it supposed to be optional between playing one or the other? It's the same note


@DonnieStorm (February 21, 2015 at 4:54 AM)

This version is easy and fun. I learned it about 5min, and my little sister will love this song. And this will also be the first song I teach her how to play. :)


@MediocreDexterity (July 21, 2015 at 10:11 PM)

I've looked at a bunch of different versions of the piece and this one is by far the best.