Gametabs
Home
Tabs
Random

Shop Theme

Average rating: 4.857

7 ratings

Composer:

Tabber:

Style:

Instrument:

Created: June 24, 2013 at 12:00 AM

                                              Shop theme                                    


Tabbed by: Alfa_ice
Standard tuning: EADGBE
Difficulty: Hard

140bpm


     E  E  E  E  E  E  Q       E  E  E  E  Q    Q       E  H        Q    E   
E||--3-----3-----1--3-------|------------------------|----------------------|
B||--0--------3-----0-------|-----3-----1------------|----------------------|
G||-------------------------|--------------4----0----|----------------------|
D||-------------------------|------------------------|--3--0-------------L--|
A||-------------------------|------------------------|----------------------|
E||-------------------------|------------------------|----------------------|


    E  E  E  E  E  E  Q       E  E  E  E  E  E  E  E   
|--------------------------|--------------------------|
|---1-----1--1-------------|-----1--------------1--1--|
|*--------------2--2--0----|--------0--0--2--2--0--L--|
|*--------------5--L-------|--------------------------|
|---3--------3-------------|--------------3--L--------|
|---------------------3----|--L--------3--------------|


  E  E  E  E  E  E  Q       Q    E  E  E  E  E  E     E  E  E  E  E  E  Q     
-------------------------|-------------------------|-------------------------|
--0-----0--0-------------|-------------------------|--0-----0--0-------------|
--------------2--2--0----|----------0--2--2--3--3--|--------------2--2--0----|
--------------------0----|--L----------5--L--3--L--|--0-----------------0----|
--------------2--L-------|-------------------------|--------------2--L-------|
-----------3-------------|----------3--------------|-----------3-------------|


  Q    E  E  E  E  E  E     E  E  E  E  E  E  E  E     Q    E  E  Q    E  E   
-------------------------|--------------------------|------------------------|
----------0-----------0--|--1-----1--1-----1--1--1--|------------------------|
-------------0--0--2-----|--------------0--L--------|------------------------|
--L----------0--L--------|--------------------------|------------------------|
----------2--------------|--3--------3--------------|-------------0----2-----|
-------------------3--L--|--------------------3-----|--L-------3-------------|


  E  E  E  E  E  E  Q       E  E  E  E  E  E  E  E     E  E  E  E  E  E  Q     
-------------------------|--------------------------|-------------------------|
--1-----1--1-------------|-----1--------------1--1--|--0-----0--0-------------|
-----------0--2--2--0----|--------0--0--2--2-----L--|-----------0--2--2--0----|
-----------------5-------|--------------5--L--------|-----------------5--3----|
--3--L-------------------|-----------3--------------|--2--L-------------------|
--------------------3----|--L-----------------3-----|-------------------------|


  Q    E  E  E  E  E  E     E  E  E  E  E  E  Q       Q    E  E  E  E  E  E   
-------------------------|-------------------------|-------------------------|
-------------------------|--0-----0--0-------------|----------0-----------0--|
-------------0--2--2--3--|-----------0--2--2--0----|--L----------0--0--2-----|
--L-------0--------0-----|-----------------5--3----|--L----0--L--------------|
-------------2--2--------|-------------------------|-------------------2-----|
-------------------------|--3--L-------------------|-------------3-----------|


  E  E  E  E  E  E  E  E     E  E  E  Q    E  E  E     Q    E  Q    E  Q     
--------------------------|----------------------0--|--1----L---------------|
--1-----1--1-----1--1--1--|----------------1--3-----|----------1----L-------|
-----------------0-----0--|-------------------------|------------------2----|
--------------------------|-------------------------|------------------3----|
--3--L-----3--------------|--3--3--3----------------|----------3----L-------|
--------------------------|-------------------------|--1----L---------------|


  Q    E  E  E  E  E  E     Q    E  Q    E  Q       Q    E  E  E  E  E  E   
-------------1--1--0-----|--0----L---------------|-------------0--0--0-----|
----------------------3--|----------1----L-------|----------1--------------|
--L-------2--------------|------------------0----|--L----------------2--3--|
--L----------------3-----|------------------2----|--L----------------2--L--|
-------------3--L--------|----------3----L-------|-------------3--L--------|
-------------------------|--3----L---------------|-------------------------|


  Q    E  Q    E  Q       Q    E  E  E  E  E  E     Q    E  Q    E  Q     
-----------------------|-------------1--1--0-----|--0---------------L----|
--0----L---------------|----------------------3--|-----------------------|
----------2----L--0----|--L-------0--------------|-----------------------|
------------------0----|--L----------------0-----|----------2----L-------|
----------2----L-------|-------------------------|--3----L---------------|
--3----L---------------|-------------3--L--------|------------------3----|


  E  E  E  E  E  E  E  E     Q    E  Q    E  Q       Q    E  E  E  E  E  E   
-----------------------0--|--1----L---------------|-------------1--1--0-----|
-----1--1--1--3--1--3-----|----------1----L-------|----------------------3--|
--------------------0--L--|------------------2----|--L-------2--------------|
--------------------------|------------------3----|--L----------------3-----|
--------------3--L--------|----------3----L-------|-------------0--L--------|
--L-----------------------|--1----L---------------|-------------------------|


  Q    E  Q    E  Q       Q    E  E  E  E  E  E     Q    E  Q    E  Q     
--0----L---------------|-------------0--0--0-----|-----------------------|
----------1----L-------|----------1--------------|--0----L---------------|
------------------0----|--L----------------2--3--|----------2----L--0----|
------------------2----|--L----------------------|------------------0----|
----------3----L-------|-------------3--L--------|----------2----L-------|
--3----L---------------|-------------------------|--3----L---------------|


  Q    E  E  E  E  E  E     E  E  E  Q    E  E  E     E  E  E  H        E     
-------------------------|-------------------------|------------------------||
-------------3--3--1--0--|--1--1--1-------1-----1--|--1--1--1---------------||
--L-------0--------------|----------------2-----2--|-----------------------*||
--L----------------0-----|-------------------------|-----------------------*||
-------------------------|--3--3--3-------0--------|--3--3--3---------------||
-------------3--L--------|-------------------------|------------------------||




Duration Legend
---------------
W - whole
H - half
Q - quarter
E - 8th
S - 16th


Tablature Legend
----------------
L - tied note


        
Comments

@Choogly (June 26, 2013 at 12:01 AM)

Awesome! I think this is now my favorite arrangement of this song.


@Alfa_ice (June 26, 2013 at 12:58 AM)

Could you please update the "listen" link to: "http://www.youtube.com/watch?v=CD2QCWNRhJ8" Thanks!