Gametabs
Home
Tabs
Random

Shop

Average rating: 5.000

8 ratings

Composer:

Tabber:

Style:

Instrument:

Created: September 30, 2007 at 12:00 AM

            Shop
The Legend of Zelda: Ocarina of Time
Composed by Koji Kondo

Guitar
     Q    E  E  E  Q    E     E  Q    E  Q    Q       E  Q    E  Q    Q
E||--3----3--------3-------|-----------------------|-----------------------|
B||----------3--6----------|-----3----1--0---------|-----------------------|
G||--4-------------4-------|------------------0----|-----------------------|
D||------------------------|-----------------------|--3--0-----------------|
A||------------------------|-----------------------|-----------------------|
E||------------------------|-----------------------|----------3--5----7----|

    Q    E  E   E   E   Q       E  E   E   E   E   E  E  E
|---8----8--8----------------|-----8------------------8--8--|
|---8----8--8--10--10---8----|-----8---8---8--10--10--8--8--|
|*--9----9--9---9---9---9----|-----9---9---9---9---9--9--9--|
|*-------------10--10--10----|--------10--10--10--10--------|
|----------------------------|------------------------------|
|---8-------8---8-------8----|-------------8---8------8-----|

   Q    E  E   E   E   Q       Q    E   E   E   E   E   E
---7----7--7----------------|------------------------------|
---8----8--8--10--10---8----|-----------8--10--10--11--11--|
--10----------10--10--10----|----------10--10--10--10--10--|
-----------------------0----|------------------------------|
--10----------10------10----|----------10--10------10------|
----------------------------|------------------------------|

   Q    E  E   E   E   E  E     E  E  E   E   E   E   E   E
---7----7--7-----------------|------------7---------------7--|
---8----8--8--10--10---8-----|------------8---8---8--10---8--|
--10----------10--10--10-----|-----------10--10--10--10--10--|
-----------------------0-----|------------0---0-------0------|
--10----------10--10--10-----|-------------------------------|
-----------------------------|-------------------------------|

  Q    E  E  E  E  E  E     Q    E  E  Q    Q         H        E  E  E  E
--8----8--8-----8--8--8--|------------------------||--------------------0--|
--8----8--8-----8--8--8--|------------------------||--------------1--3-----|
--9----9--9-----9--9--9--|-----------------------*||-----------------------|
-------------------------|-----------------------*||-----------------------|
-------------------------|------------------------||-----------------------|
--8-------8--8-----8-----|----------3--5----7-----||-----------------------|

  Q.     Q.     Q       H        Q    Q       Q.     Q.     Q
--1------------------|----------------1----|--0------------------|
---------1-----------|---------------------|---------1-----------|
--2-------------2----|--L--------2----2----|--0-------------0----|
---------3-----------|---------------------|---------2-----------|
----------------3----|--L--------3---------|----------------3----|
---------------------|---------------------|---------------------|

  H        E  E  E  E     Q.     Q.     Q       H        E  E  E  E
-----------------------|---------------------|-----------1--1--0-----|
-----------------------|--0------------------|--------------------3--|
--L-----------0--2--3--|---------2------0----|--L--------------------|
-----------------------|--0-------------3----|--L--------------------|
--L--------------------|---------2-----------|-----------------------|
-----------------------|----------------3----|--L--------------------|

  W                   E  E  E  E  E  E  E  E     Q.     Q.     Q
--0----------------|-----------------------0--|--1------------------|
--1----------------|-----1--1--1--3--1--3--1--|---------1-----------|
--0----------------|-----0--0--0--3-----3--3--|--2-------------2----|
--2----------------|--------------------------|---------3-----------|
--3----------------|--------------------------|----------------3----|
-------------------|--------------------------|---------------------|

  H        E  E  E  E     Q.     Q.     Q       H        E  E  E  E
--------------1--0-----|--0------------------|-----------------------|
--------------------3--|---------1-----------|-----------------------|
--L--------------------|--0-------------0----|--L-----------0--2--3--|
-----------------------|---------2-----------|-----------------------|
--L--------------------|----------------3----|--L--------------------|
-----------------------|---------------------|-----------------------|

  Q.     Q.     Q       H        E  E  E  E     E  E  E  Q    E  E  S S
---------------------|-----------------------|--------------------------|
--0------------------|--------------3--1--0--|--1--1--1-------1-----1---|
---------2------0----|--L--------0-----0-----|--0--0--0-------2-----0-2-|
--0-------------3----|--L--------0-----3-----|--2--2--2-------3-----3---|
---------2-----------|-----------2-----------|--3--3--3-----------------|
----------------3----|--L--------------------|--------------------------|

  E  E  E  E  H
-----------------------||
--1--1--1--------------||
--0--0--0--------------||
--2--2--2--------------||
--3--3--3--------------||
-----------------------||

Duration Legend
---------------
W - whole
H - half
Q - quarter
E - 8th
S - 16th
T - 32nd
X - 64th
. - note dotted
|-n-|  - n-tuplets

        
Comments

@Acoustical-EMotion (October 24, 2007 at 10:38 PM)

Great Tab!..Takes some actual time of studying! Thanks!


@wako-kun (June 21, 2008 at 12:52 PM)

Thanks bro this is the best tab I've seen on this site so far. It seems flawless and you added the bass lines...

Well, it's totally perfect! nice job!^^


@smiley (March 07, 2009 at 6:40 PM)

Thats just awesome man! 5 Stars!


@Brave Toaster (September 26, 2010 at 11:48 PM)

So much fun to play! Excelent arrangement! Thank you for sharing it with us! Those were some nice chord uses!


@DeepGuitar42 (July 21, 2011 at 3:07 AM)

¡Hey is like in the partiture! Is the same thing xD there are the same notes.

P.S. The english is not my native language, sorry if I made a mistake.


@musenji (October 20, 2014 at 6:07 PM)

Nice! The left hand switch in the middle of measure 6 is certifiably insane at tempo but I may try to get it there someday. :D