Gametabs
Home
Tabs
Random

Shooting Gallery

Average rating: 4.833

6 ratings

Composer:

Tabber:

Style:

Instrument:

Created: August 02, 2013 at 12:00 AM

            Shooting Gallery                                           
The Legend of Zelda: Ocarina of Time
Koji Kondo
JordanVS

Tempo : 180
                                                        |---3---|                    
     H.           E  E       E  E  E  E  E  E  E  E     E   E   E  E  E  Q    E  E   
E||---------------------||------------------0--0--3--|--3h--5p--3--1--0--1----------|
B||---------------------||------------1--1-----------|------------------------------|
G||---------------------||*-----0--0-----0-----------|-------------------0----------|
D||---------------5--3--||*--2-----------------------|--0---------------------5--3--|
A||---------------------||---3-----------------------|------------------------------|
E||---------------------||---------------------------|------------------------------|


                             |---3---|                                               
  E  E  E  E  E  E  E  E     E   E   E  E  E  Q    E  E     E  E  E  E  E  E  E  E   
-----------------------1--|--1h--3p--1--0-----0----------|-----------------0--0--3--|
-----------------0--0-----|----------------3-------------|-----------1--1-----------|
-----------0--0-----------|-------------------0----------|-----0--0-----0-----------|
-----3--3-----------------|--0---------------------5--3--|--2-----------------------|
--5-----------------------|------------------------------|--3-----------------------|
--------------------------|------------------------------|--------------------------|


                                                              1.
  |---3---|                                  |---3---|                                   
  E   E   E  E  E  Q    E  E     E  E  E  E  E   E   E  E  E     Q    Q    Q    E  E     
--3h--5p--3--1--0--1----7--5--|--5--3--3--1--1h--3p--1--0-----|------------------------||
------------------------------|----------------------------3--|--1---------------------||
-------------------0----------|--------------0----------------|--0--------------0-----*||
--0---------------------------|--0----------------------------|-------2----2-------3--*||
------------------------------|-------------------------------|--3----3----3-----------||
------------------------------|-------------------------------|------------------------||

2.
                                                   >                                       
  Q    Q    Q    Q       H        H           Q    H        Q       Q    E  E  Q    E  E   
----------------------|--------------------|-------5-------------|--3----0--3--1----0-----|
--1-------------------|--------------------|--1----1-------------|-------1-------------3--|
----------------------|--2--------2--------|---------------------|-------------0----------|
-------2----2---------|--3--------3--------|---------------------|------------------------|
--3----3----3---------|--------------------|---------------------|--3---------------2-----|
----------------------|--------------------|--1----1-------------|------------------------|


                                                    >                                       
  E  E  Q    Q    Q       H        H           Q    H        Q       Q    E  E  Q    E  E   
--------0--------------|--------------------|-------5-------------|--3----0--3--1----0-----|
--1--3-----------------|--------------------|---------------------|-------1-------------3--|
-----------------------|--2--------2--------|--5----5-------------|-------------0----------|
--------2----2---------|--3--------3--------|---------------------|------------------------|
--3-----3----3---------|--------------------|---------------------|--3---------------2-----|
-----------------------|--------------------|--1----1-------------|------------------------|


  Q    Q    Q    E  E     W                  
-----------------------|-------------------||
--1--------------------|-------------------||
-----------------0-----|-------------------||
-------2----2-------3--|-------------------||
--3----3----3----------|--3----------------||
-----------------------|-------------------||




Duration Legend
---------------
W - whole
H - half
Q - quarter
E - 8th
. - note dotted
|-n-|  - n-tuplets


Tablature Legend
----------------
L - tied note
h - hammer on
p - pull off
b - bend
        
Comments

@Alfa_ice (August 05, 2013 at 1:25 PM)

Epic arrangement! Nasty stretch at bar 16 :D