Gametabs
Home
Tabs
Random

Sheik's Theme

Average rating: 5.000

4 ratings

Composer:

Tabber:

Style:

Instrument:

Created: October 08, 2008 at 12:00 AM

            Legend of Zelda: Ocarina of Time (N64)

Sheik's Theme (Classical Arrangement)

Original Composer: Koji Kondo

Tabbed by: Charlie Shortman (cwjs0)

18:30 07/10/2008


e |--6--------------------6---------------------
B |----6--8--6--------------6--8--6-------------
G |------------7--------------------7--10-------
D |--------------8--10---------------------10---
A |--5----6----7----8-----5----6----7------8----
E |---------------------------------------------

e |------------6-8-13-10-6-8---------------------------
B |--------6-8--------------------------------6-3------
G |----5-7--------------------------------3-5-----3-5--
D |--8--------------------------------3-5--------------
A |-------------------------------3-5------------------
E |-----------------------------6----------------------

e |--------6-------6--------------
B |--6--8----6--8-----6-----------
G |----------------------7--------
D |------------------------8--10--
A |--5--6--6-5--6--6--5--7----8---
E |-------------------------------
        
Comments

@amz181 (October 08, 2008 at 9:00 PM)

excellent