Gametabs
Home
Tabs
Random

Sheik's Theme

Average rating: 4.857

7 ratings

Composer:

Tabber:

Style:

Instrument:

Created: November 09, 2010 at 12:00 AM

            Simple, and easy.

E|-6---------------|-6---------1------|-----------6-8-13-10----8-|
B|---6-8-6-3---1---|---6-8-6-3---1----|-----3-6-8-----------11---|
G|-----------3-----|------------------|-3-5----------------------|
D|-------------3---|-------------3----|-5---3--------------------|
A|-5---6-5-1-------|-5---6-5-1--------|---------6---8----10----8-|
E|-----------------|------------------|--------------------------|

E|---------3-6-8-13-10----8---|-------6-----6---------|
B|-----3-6-------------11-----|---6-8---6-8---6-3---1-|
G|-3-5------------------------|-------------------3---|
D|-5---3---1------------------|---------------------3-|
A|-------------8----10----8---|---5-6---5-6---5-------|
E|----------------------------|-----------------3-----|


LEAD ONLY:

E|-6---------------|-6---------1------|-----------6-8-13-10----8-|
B|---6-8-6-3---1---|---6-8-6-3---1----|-----3-6-8----------------|
G|-----------3-----|------------------|-3-5----------------------|
D|-----------------|------------------|--------------------------|
A|-----------------|------------------|--------------------------|
E|-----------------|------------------|--------------------------|

E|---------3-6-8-13-10----8---|-------6-----6---------|
B|-----3-6-------------11-----|---6-8---6-8---6-3---1-|
G|-3-5------------------------|-------------------3---|
D|----------------------------|-----------------------|
A|----------------------------|-----------------------|
E|----------------------------|-----------------------|
        
Comments

@MisterM2402 (November 01, 2012 at 2:28 AM)

Excellent. Surprised nobody has commented sooner :D


@oliviasbored (December 07, 2012 at 7:17 PM)

simple, yet is sounds very beautiful. thank you!


@xxtazy (December 16, 2014 at 9:24 PM)

Soothing, beautiful melody :) thanks for the tab https://soundcloud.com/mickegitarr/zelda-ocarina-of-time-sheiks-theme