Gametabs
Home
Tabs
Random

Sheik's Theme

Average rating: 4.889

9 ratings

Composer:

Tabber:

Style:

Instrument:

Created: February 09, 2013 at 12:00 AM

                                             Sheiks Theme                                   


                                                    Arranged by the lemoncobbler
Track 1 (Capo 5)



     ^     ^                  ^           ^     ^                  ^         
     E  E  Q    Q       E  E  H           E  E  Q    Q       E  E  H         
E||--1---------------|-----------------|--1---------------|-----------------|
B||--1--1--3----1----|-----------------|--1--1--3----1----|-----1-----------|
G||--2--2--2----2----|--2-----0--------|--2--2--2----2----|--2--0--0--------|
D||--------3---------|--0--3--3--------|--------3---------|--0--2--2--------|
A||--0-----1---------|-----1--3--------|--0-----1---------|--------3--------|
D||------------------|-----------------|------------------|-----------------|


                            ^  ^       ^                       ^    ^           
    E  E  E  E  E  E     E  E  E.  E.  E     H.                Q    E  E  Q     
|------------------1--|-----8--5-------3--|--L-------------||--L-------1-------|
|------------1--3-----|--8--8--6---6---1--|--L-------------||--1----3-----1----|
|*-----0--2-----------|--------5-------0--|--L------------*||--0----2-----0----|
|*--3-----------------|--------3-------2--|--L------------*||--2----3-----2----|
|---5-----3-----1-----|----------------3--|--L-------------||--0----1-----3----|
|---------------------|-------------------|----------------||------------------|


  ^  v  ^             ^               ^    ^             ^  v  ^           
  E  E  Q    E  E     H.              Q    E  E  Q       E  E  Q    E  E   
-----1-------------|---------------|--L-------1-------|-----1-------------|
--3--3--1----------|---------------|--1----3-----1----|--3--3--1-------1--|
--2--2--0----2-----|--0------------|--0----2-----0----|--2--2--0----2--0--|
--3-----2----0--3--|--3------------|--2----3-----2----|--3-----2----0--2--|
--1-----3-------1--|--3------------|--0----1-----3----|--1-----3----------|
-------------------|---------------|------------------|-------------------|


  ^                               
  Q    H                          
----------------|---------------||
----------------|---------------||
--0-------------|---------------||
--2----3--------|---------------||
--3----3--------|---------------||
-------3--------|---------------||




Duration Legend
---------------
W - whole
H - half
Q - quarter
E - 8th
S - 16th
T - 32nd
X - 64th
. - note dotted
|-n-|  - n-tuplets


Tablature Legend
----------------
L - tied note
x - dead note
g - grace note
(n) - ghost note
> - accentuded note
NH - natural harmonic
AH - artificial harmonic
TH - tapped harmonic
SH - semi harmonic
PH - pitch harmonic
h - hammer on
p - pull off
b - bend
br - bendRelease
pb - preBend
pbr - preBendRelease
brb - bendReleaseBend
\n/ - tremolo bar dip
\n - tremolo bar dive
-/n - tremolo bar Release up
/n\ - tremolo bar inverted dip
/n - tremolo bar return
-\n - tremolo bar Release down
S - shift slide
s - legato slide
/ -  slide into from below or out of upwards
\ -  slide into from above or out of downwards
~ - vibrato
W - wide vibrato
tr - trill
TP - tremolo picking
T - tapping
S - slap
P - pop
< - fade in
^ - brush up
v - brush down

        
Comments

@Kain (February 10, 2013 at 3:54 AM)

You really should kill the drop d tuning and put it in standard. The final chord is the only thing that it is necessary for, and even then, that's a standard chord easily done as

^
Q    H
----------------|---------------||
----------------|---------------||
--0-------------|---------------||
--2----3--------|---------------||
--3----3--------|---------------||
-------1--------|---------------||

@Choogly (February 10, 2013 at 5:37 PM)

Awesome tab!


@BigHeadClan (February 10, 2013 at 9:12 PM)

Hoho Nostalgia is coming in waves;

Totally going to have to give this a few plays once my guitar is re-stringed!


@musenji (March 29, 2013 at 1:18 AM)

Seriously tho this tab is gross.

I need to work on the upstrums a bit more to find out whether I really like them. There were a couple times in practice that I did them in a really fast way that sounded crisp and good, but I didn't worry about getting that in the recording because DEADLINES. So I should really work on this more.

Aaaaaaand my left hand just went on strike.