Gametabs
Home
Tabs
Random

Serenade of Water

Average rating: 5.000

16 ratings

Composer:

Tabber:

Style:

Instrument:

Created: March 08, 2010 at 12:00 AM

                                  Legend of Zelda: Ocarina of Time 
                             Serenade of Water

Gtr I (E A D G B E)

   Q=75
  3/4
   Gtr I
   E  E E E E E   E  E E E E E   E  E E E E E   E  E E E E E   E  E E E E E
*|----------0---|-0----2-------|----------0---|-0----2-------|------2---3--|
*|------1-------|--------3-----|------1-------|--------3-----|-1-----------|
*|-2------2---2-|----2-----2---|-2------2---2-|----2-----2---|-------------|
*|----2---------|-0----------0-|----2---------|-0----------0-|----2---2---2|
*|-0------------|--------------|-0------------|--------------|-3-----------|
*|--------------|--------------|--------------|--------------|-------------|
   H.             H.             H.             H.             H.


 4/4          3/4            4/4         3/4
  E E H.       E  E E E E E   E E H.      E  E E E E E   E  E E E E E
|-2---0------|------2---3---|-2---0-----|----------0---|-0----2---------|
|-----0------|-1------------|-----0-----|------1-------|--------3-------|
|-----0------|--------------|-----0-----|-2------2---2-|----2-----2-----|
|---2-2------|----2---2---2-|---2-2-----|----2---------|-0----------0---|
|-----2------|-3------------|-----2-----|-0------------|----------------|
|-----0------|--------------|-----0-----|--------------|----------------|
               H.                         H.             H.


  E  E E E E E   E  E E E E E   E  E E E E E   E  E E E E E   E E E E  Q
|----------0---|-0----2-------|-0------------|--------------|---------^5---*|
|------1-------|--------3-----|----------1---|-3--1-0---3---|-2-----2-^2---*|
|-2------2---2-|----2-----2---|------2-----2-|------------0-|-----2---^2---*|
|----2---------|-0----------0-|----3---3-----|--------0-----|---2-----^2---*|
|-0------------|--------------|--------------|--------------|-0-------!0---*|
|--------------|--------------|-1------------|-3------------|--------------*|
  H.             H.             H.             H.             H        Q


        
Comments

@GuitarFailKid (March 09, 2010 at 4:58 PM)

Now this is exactly what I have been looking for! Thank you, it's spot on. I can play it fairly easily aswel Great work!


@Brave Toaster (March 10, 2010 at 6:36 AM)

Hey, I really liked it! Simple, and sounds just like that song would be on classical guitar. Thank you very much for sharing it with us! Why don't you arrange all the Ocarina songs? I can imagine all of them just like it, and it would be awesome. By the way, how do you play that part with the C chord:

|------2---3--|

-1-----------
----2---2---2
-3-----------
-------------
H.

? Should I use my pink to play the first string's 2 and 3?


@Choogly (December 05, 2010 at 7:28 PM)

Just what I wanted. Great tab.


@Skjthan (January 24, 2011 at 2:35 AM)

So awesome, its amazing to play :D I recommend putting a capo on 5 so you can play along with the original song's key.


@diralark (May 25, 2013 at 10:30 AM)

best version ever


@KieranPowell (August 31, 2015 at 3:35 PM)

I found this to not sound accurate to the games melody so i have adjusted it to sound more like the game, Also i shortened it, feel free to make a longer version.

Am                D              Am                 D              C             D             A
*|----------0---0---|-2----2-------|----------0---0---|-2----2-------|-------------|-------------|---------0--------|
*|------1-----------|--------3-----|------1-----------|--------3-----|-1---------1-|-3-1-0-----3-|-2-----2---2------|
*|-2------2---2---2-|----2-----2---|-2------2---2---2-|----2-----2---|------0------|-----0-------|-2---2-------2----|
*|----2-------------|-0----------0-|----2-------------|-0----------0-|----2--------|---0---------|-2-2-----------2--|
*|-0----------------|--------------|-0----------------|--------------|-3-----------|-0-----------|-0---------------0|
*|------------------|--------------|------------------|--------------|-------------|-------------|------------------|