Gametabs
Home
Tabs
Random

Serenade of Water

Average rating: No ratings

Composer:

Tabber:

Style:

Instrument:

Created: May 11, 2011 at 12:00 AM

            Serenade of Water
Legend of Zelda: Ocarina of Time
Composed by: Koji Kondo
Tabbed by: Fenderic
Date tabbed: May 10th, 2011


E|--------------------5-5-7-|
A|------0-0-2-----5-8-------|
D|--0-3---------------------|
G|--------------------------|

E|--5---1---3-1-0-3-2-|
A|----5---------------|
D|--------------------|
G|--------------------|
        
Comments

No comments yet