Gametabs
Home
Tabs
Random

Saria's Song (j0sephyu ver.)

Average rating: 4.875

8 ratings

Composer:

Tabber:

Style:

Instrument:

Created: January 20, 2010 at 12:00 AM

                        The Legend of Zelda: Ocarina of Time - Saria's Song
                   Composed by Koji Kondo arr. j0sephyu

                             Tabbed by Auriplane
                       From j0sephyu's Youtube video:
               http://www.youtube.com/watch?v=LTA5gt8veZg



I can take no credit for this arrangement, all I did was transcribe it.
All credit goes to j0sephyu, and all mistakes are my own.

Drop-D tuning.


      E  E  E  E  E  E  E  E     E  E  E  E  E  E  E  E     E  E  E  Q.     E  E
e||---------------------------|-----------0--------------|------------------------|
B||---------0-----------0-----|--------0-----3-----0--1--|--0---------------------|
G||*-----2-----------2--------|-----2--------------------|-----0------------------|
D||*--3-----------3-----------|--3-----------------------|--------2--L------L--0--|
A||---------------------------|--------------------------|--3--------3------3-----|
D||---3--------3--3--------3--|--3-----------L--3--------|------------------------|


  E  E  E  Q.     Q       E  E  E  E  E  E  E  E     E  E  E  E  E  E  E  E
-----------------------|--------------------------|-----------0--------------|
-----------------------|--------0-----------0-----|--------0-----3-----0--1--|
-----0-----------------|-----2-----------2--------|-----2--------------------|
--2-----2--------------|--3-----------3-----------|--3-----------------------|
--3--------3------3----|--------------------------|--------------------------|
-----------------------|--3--------3--3--------3--|--3-----------L--3--------|


  E  E  E  Q.     E  E     E  E  E  Q.     Q       E  E  E  E  E  E  Q
--0---------------------|-----------------------|-------------------------|
-----0---------------0--|-----------------------|--------------------0----|
--------0--L------L-----|--0--------------------|--------------0--2-------|
------------------------|-----0--2--L------L----|--0--2--3----------------|
--3--------3------3-----|--3--------3------3----|-------------------------|
------------------------|-----------------------|--0--------0--5----------|


  E  E  E  Q.     Q       E  E  E  E  E  E  Q       E  E  E  Q.     Q
-----------------------|-------------------------|--0--1--3--------------|
--1--0-----------------|--------------0-----3----|-----------------------|
-----------------------|-----0--2--------5-------|-----------------------|
--------2--L------L----|--3----------------------|-----------------------|
--3--------3------3----|-------------------------|--3--------3------3----|
-----------------------|--0--------0--5----------|-----------------------|


  E  E  E  E  E  E  Q       E  E  E  Q.     Q       E  E  E  E  E  E  E  E
-------------------------|-----------------------|--------------------------|
--------------------0----|--1--0-----------------|--------------------0-----|
--------------0--2-------|-----------------------|--------0-----2--------0--|
--0--2--3----------------|--------2--------------|--3--0-----2-----3--------|
-------------------------|--3--------3------3----|--------------------------|
--0--------0--5----------|-----------------------|--0-----------------------|


                             1st ending ------------------------------------------.

                                  ^     ^     ^     ^        ^  ^  ^  ^
  E  E  E  E  E  E  S S S S    E  E  E  E  E  E  E  E     E  E  E  E  Q    Q
--------------0-----0-1-L---|--0--0--L--0--L--0--L--0--|--L--0--0--0--0----x-----||
--1-----3--0-----1--------3-|-----0--L--0--L--0--L--0--|--L--0--0--0--0----x-----||
-----2----------------------|-----1--L--1--L--1--L--1--|--L--2--2--1--1----x----*||
----------------------------|-----2--L--2--L--2--L--2--|--L--0--0--2--2----x----*||
--3-------------------------|-----2--L--2--L--2--L--2--|--L--2--2--2--2----x-----||
----------------------------|-----2--L--2--L--2--L--2--|--L--2--2--2--2----x-----||


2nd ending

     ^     ^     ^     ^        ^  ^  ^  ^    ^       ^
  E  E  E  E  E  E  E  E     E  E  E  E  Q    Q       W
--0--0--L--0--L--0--L--0--|--L--0--0--0--0----0----|--0----------------|
-----0--L--0--L--0--L--0--|--L--0--0--0--0----0----|--0----------------|
-----1--L--1--L--1--L--1--|--L--2--2--1--1----1----|--2----------------|
-----2--L--2--L--2--L--2--|--L--0--0--2--2----2----|--3----------------|
-----2--L--2--L--2--L--2--|--L--2--2--2--2----2----|--3----------------|
-----2--L--2--L--2--L--2--|--L--2--2--2--2----2----|--3----------------|


                             ^
  E  S  S  Q    Q    Q       W
--L--0h-1p-0--------------|--0----------------||
--L-------------3----1----|--0----------------||
--L-----------------------|--1----------------||
--L-----------------------|--2----------------||
--L-----------------------|--2----------------||
--L-----------------------|--2----------------||




Duration Legend
---------------
W - whole
H - half
Q - quarter
E - 8th
S - 16th
. - note dotted


Tablature Legend
----------------
L - tied note
x - hit strings with right hand
h - hammer on
p - pull off
^ - brush up


        
Comments

@LTRobson (January 20, 2010 at 9:57 PM)

Oh, this is also called Lost Woods?


@yoshistrings (January 21, 2010 at 2:45 AM)

Wonderful!


@natenmn (June 13, 2011 at 7:52 PM)

This is great, Auri!


@Andarnio (February 12, 2012 at 9:13 PM)

I learned how to play this on guitar and i also did this song on minecraft, from these tabs!