Gametabs
Home
Tabs
Random

Saria's Song

Average rating: 4.000

3 ratings

Composer:

Tabber:

Style:

Instrument:

Created: October 04, 2009 at 12:00 AM

            Name of song: Saria's Songs
Name of game: Legend of Zelda: Ocarina of Time
Composer of song: Koji Kondo
Name of tabber: igiari
Date tab was made: 1st August 2009
-------------------------------------------------------------------------------

Before you learn this song, check this out first:

Tuning: Standard

| /  slide up
| \  slide down
| h  hammer-on
| p  pull-off
| ~  vibrato
| +  harmonic
| x  Mute note

I hope you enjoy learning this masterpiece!


e|----5-7----5-7----5-7---12--10---7-8-7--3-0---0-3-0------------------------|
B|--6------6------6---------------------------3------------------------------|
G|---------------------------------------------------------------------------|
D|---------------------------------------------------------------------------|
A|---------------------------------------------------------------------------|
E|---------------------------------------------------------------------------|

e|----5-7----5-7----5-7---12--10---7-8-12-7-3--7-3---0-----------------------|
B|--6------6------6--------------------------------3-------------------------|
G|---------------------------------------------------------------------------|
D|---------------------------------------------------------------------------|
A|---------------------------------------------------------------------------|
E|---------------------------------------------------------------------------|

e|-------3-5-7--8-7-----------3-5-7--8-10-12--------3-5-7--8-7---------------|
B|-3-5-6------------5---3-5-6-----------------3-5-6------------5-------------|
G|---------------------------------------------------------------------------|
D|---------------------------------------------------------------------------|
A|---------------------------------------------------------------------------|
E|---------------------------------------------------------------------------|

e|-3-0-5-3-7-5-9-7-10-11-8-10--10--10----------------------------------------|
B|---------------------------------------------------------------------------|
G|---------------------------------------------------------------------------|
D|---------------------------------------------------------------------------|
A|---------------------------------------------------------------------------|
E|---------------------------------------------------------------------------|

Please Rate and Comment. Also please, If you find any errors, or the midi for this song, 

comment, or send me a message.

Thank you!

        
Comments

@uranutan (October 05, 2009 at 7:16 PM)

Tab seems accurate but the fingering is really unnecessarily difficult. Please try to condense every note within four or five frets when you can so we don't have to jump from 12 to 3 and crap like that. You have six strings; use them!


@ladybug95 (November 07, 2009 at 3:18 AM)

I thought that it was perfectly fine... yes the fingering was a little awkward, but overall this was very enjoyable to play!!


@RyanAce (September 26, 2010 at 1:48 AM)

Very accurate and easy I loved it!


@nowhereman (May 21, 2011 at 9:44 PM)

e3=b8 e0=b5 b3=g7